busca

Chora, Me Liga

João Bosco e Vinícius

Tom: C
Intro: C  G  Am  F (2x)

Solo Intro:

Parte 1 de 2

   C                           G
E|-3-3-3--0-0-0----------------------------------|
B|-5-5-5--1-1-1--1-1-1--1-1--1-1--3--------------|
G|---------------0-0-0--2-2--0-0--4--------------|
D|-----------------------------------------------|
A|-----------------------------------------------|
E|-----------------------------------------------|

Parte 2 de 2

           Am             F
E|-----------0--0-0-0-0-0-1-0--------------------|
B|-1-1-1-1-1-1--1-1-1-1-1-3-1-1------------------|
G|-0-2-2-0-2------------------2------------------|
D|----------------------------3------------------|
A|-----------------------------------------------|
E|-----------------------------------------------|

Primeira Parte:

    C
Não era pra você se apaixonar
     G
Era só pra gente ficar
          Am
Eu te avisei
                   F
Meu bem, eu te avisei
        C
Você sabia que eu era assim
               G
Paixão de uma noite que logo tem fim
         Am
Eu te falei
                  F
Meu bem, eu te falei

Pré-Refrão:

             C/E         Dm
Não vai ser tão fácil assim
                 F
Você me ter nas mãos
                    C
Logo você que era acostumada
       G/B           Am
A brincar com outro coração

                    Dm
Não venha me perguntar
                F
Qual a melhor saída
                     Dm
Eu sofri muito por amor
          F            G
Agora eu vou curtir a vida

Refrão:

  C
Chora, me liga, implora
              G
Meu beijo de novo
           Am
Me pede socorro
                        F
Quem sabe eu vou te salvar

  C
Chora, me liga, implora
           G
Pelo meu amor
            Am
Pede por favor
              F              G       C
Quem sabe um dia eu volto a te procurar

Clipes

Cifra Club Pro

Aproveite o Cifra Club com benefícios exclusivos e sem anúncios
Cifra Club Pro
Aproveite o Cifra Club com benefícios exclusivos e sem anúncios