A
123
X02220
Am7
12
X02010
Bm
234
X24432
C4
134
X3301X
C5(9)
34
X35533
D5(9)
12
XX0230
Dm
123
XX0231
Em
12
022000
F
234
133211
G
1234
320033
Tom: G
(intro) C5(9) C4 Am7 G F G

#1t1#(arpejo - solo)
#1t2#E|--3-----3--------
B|----1-----1------
G|------0-----0----
D|-----------------
A|-----------------
E|-----------------#/1t2##/1t1#

#2t1##2t2#E|-------------------------------------------
B|-1/5-5-5-5-5-5-6-5---1/5-5-5-5-5-5-6-5-----
G|---5-5-5-5-5-5-5-------5-5-5-5-5-5-5-------
D|-------------------------------------------
A|-------------------------------------------
E|-------------------------------------------#/2t2##/2t1#

#3t1##3t2#E|-------------------------------------------
B|---5-5-5-5-5-5-5-6-5-3---5-5-5-6-10-8-8-8--
G|---5-5-5-5-5-5-5-5-5---5-5-5-5-5-9--7-7-7--
D|--------------------3-5--------------------
A|-------------------------------------------
E|-------------------------------------------#/3t2##/3t1#

(primeira parte)
  C5(9)                               G
Chega fazendo de conta que não me conhece não
    F
Sorri pra todo mundo, me olha por um segundo
     G
Pra ver se tem minha atenção
 C5(9)                                  G
Se falo contigo, me ignora não quer me dar razão
 F                        Dm
Diz pra todo mundo que vive me dando fora
     G
Que sirvo só pra curtição

#4t1#(arpejo - solo 2)
#4t2#E|--3------3------3--------------
B|----1------1------1------------
G|------0------0----------------- (7x)
D|-------------------------------
A|-------------------------------
E|-------------------------------#/4t2##/4t1#

#5t1##5t2#E|-------------------------------
B|-6-6-6-6-5---------------------
G|-5-5-5-5-5-7-5-----------------
D|-------------------------------
A|-------------------------------
E|-------------------------------#/5t2##/5t1#

#6t1##6t2#E|--3------3------3--------------
B|----1------1------1------------
G|------0------0----------------- (8x)
D|-------------------------------
A|-------------------------------
E|-------------------------------#/6t2##/6t1#

(refrão)
             C5(9)
Me diz pra que fazer tanto charminho
       Am7
Ta perdendo o seu tempo, sem me dar carinho
   F                    Dm
Assuma de vez que quer me amar
  G
Quem desdenha quer comprar
         C5(9)
Quero pedir menina, não brinque comigo
     Am7
Não deixe demais meu coração de castigo
      F                    Dm
Você sabe que tem toda minha atenção
           G
E que não sirvo só pra curtição

          C5(9)
Quer me amar
         Am7
Se entregar
            F
Não quer falar
Dm                   G
  Que é meu seu coração
                           C5(9)
Que não sirvo só pra curtição

(passagem) C5(9) C4 Am7 G F A

#7t1#(solo preparação - refrão +1 tom acima)
#7t2#E|--------------------------------------------
B|-1/5-5-5-5-5-5-6-5----1/5-5-5-5-5-5-6-5-----
G|-----5-5-5-5-5-5-5--------5-5-5-5-5-5-5-----
D|--------------------------------------------
A|--------------------------------------------
E|--------------------------------------------#/7t2##/7t1#

#8t1##8t2#E|--------------------------------------------
B|-5-5-5-5-5-5-5-6-8-10-8-6-5-------------5-7-
G|-5-5-5-5-5-5-5-5-5----------7-6-4-6-6-7-----
D|--------------------------------------------
A|--------------------------------------------
E|--------------------------------------------#/8t2##/8t1#

(refrão + 1 tom acima)
             D5(9)
Me diz pra que fazer tanto charminho
       Bm
Ta perdendo o seu tempo, sem me dar carinho
   G                    Em
Assuma de vez que quer me amar
  A
Quem desdenha quer comprar
         D5(9)
Quero pedir menina, não brinque comigo
     Bm
Não deixe demais meu coração de castigo
      G                    Em
Você sabe que tem toda minha atenção
           A
E que não sirvo só pra curtição

          D5(9)
Quer me amar
         Bm
Se entregar
            G
Não quer falar
Em                   A
  Que é meu seu coração
                             D5(9)   Bm G Em A D5(9)
E que não sirvo só pra curtição

#9t1#(solo final)
#9t2#E|------------------------------------------
B|-7-7-7-7-7-7-7-8-7--7-7-7-7-7-7-7-8-7-----
G|-7-7-7-7-7-7-7-7-7--7-7-7-7-7-7-7-7-7-----
D|------------------------------------------
A|------------------------------------------
E|------------------------------------------#/9t2##/9t1#

#10t1##10t2#E|-5-----5-----5---5-----5-----5------------
B|---3-----3-----3---3-----3-----3----------
G|-----2-----2---------2-----2--------------
D|------------------------------------------
A|------------------------------------------
E|------------------------------------------#/10t2##/10t1#

#11t1##11t2#E|-5-----5-----5---5-----5-----5------------
B|---3-----3-----3---3-----3----------------
G|-----2-----2---------2-----2--------------
D|------------------------------------------
A|------------------------------------------
E|------------------------------------------#/11t2##/11t1#

#12t1##12t2#E|------------------------------------------
B|-7-7-7-7-7-7-7-8-7------------------------
G|-7-7-7-7-7-7-7-7-7------------------------
D|------------------------------------------
A|------------------------------------------
E|------------------------------------------#/12t2##/12t1#
Composição: Elizandra SantosColaboração e revisão: Otavio Rezendevinicius lavrasallan henriqueCaio Fabiano
Videoaula Curtição (aula de violão completa)