Bb
234
X13331
Bb/D
1234
X5X366
Cm
234
X35543
Cm7
34
X35343
Eb
234
X65343
F
234
133211
F/A
1234
5X356X
G7
34
353433
Gm
34
355333
Tom: G
[Intro] Cm7  F  Bb  G7
        Cm7  F  Bb  G7

#1t1#   Cm          F
#1t2#E|-3--3-5-5/6--6-6-5-5-3-3-1----------------|
B|-4--4-6-6/8--8-8-6-6-4-4-3----------------|
G|-5----------------------------------------|
D|-5----------------------------------------|
A|-3----------------------------------------|
E|------------------------------------------|#/1t2##/1t1#

#2t1#   Bb       Eb 
#2t2#E|-1-3-3/5--3-3-1-1-------------------------|
B|-3-4-4/6--4-4-3-3--4-4-3------------------|
G|-------------------5-5-3------------------|
D|------------------------------------------|
A|------------------------------------------|
E|------------------------------------------|#/2t2##/2t1#

#3t1#   Cm          F
#3t2#E|-3--3-5-5/6--6-6-5-5-3-3-1----------------|
B|-4--4-6-6/8--8-8-6-6-4-4-3----------------|
G|-5----------------------------------------|
D|-5----------------------------------------|
A|-3----------------------------------------|
E|------------------------------------------|#/3t2##/3t1#

#4t1#   Bb       Eb 
#4t2#E|-1-3-3/5--3-3-1-1-------------------------|
B|-3-4-4/6--4-4-3-3--4-4-3------------------|
G|-------------------5-5-3------------------|
D|------------------------------------------|
A|------------------------------------------|
E|------------------------------------------|#/4t2##/4t1#

[Primeira Parte]

Cm                                         F   
  Já tentei te convencer de tudo quanto é jeito
Bb                                          Eb
   Antes que o mundo desabasse todo de uma vez

[Riff]

#5t1##5t2#E|------------------------------------------|
B|-4p3----3h4-------------------------------|
G|----5p3-3h5-------------------------------|
D|--------3h5-------------------------------|
A|------------------------------------------|
E|------------------------------------------|#/5t2##/5t1#

Cm                                          F
   Fiquei perdido sem você no meio de um deserto

[Pré-Refrão]

Bb                                   Eb
   Me perguntando se ainda sobreviverei
          Cm                                  F
Meu sentimento sem você ficou tão triste e vazio
         Bb                                  Eb
Já percebi que sem o seu amor eu não renascerei
             Cm                                    F
Porque a saudade está quebrando o que resta da minha ilusão
           Eb               Bb                  Cm               
Porque preciso juntar os pedaços dentro do meu coração 
             F
Por isso eu juro que

[Refrão]

             Bb             
Eu deixaria tudo se você ficasse
                    Eb
Meus sonhos meu passado  minha religião
                  F
Depois de tudo estás fugindo dos meus braços
              Bb
Deixando o silêncio desta solidão
              Eb                               Bb       F/A  
Não sei o que eu faria desejos loucuras todas fantasias
Gm                  Cm          Eb          
   Nada tenho a perder diz pra mim 
       F                       Eb  Bb/D  Cm  Bb
O que mais você quer da minha vida

( Cm7  F  Bb  G7 )

#6t1#   Cm          F
#6t2#E|-3--3-5-5/6--6-6-5-5-3-3-1----------------|
B|-4--4-6-6/8--8-8-6-6-4-4-3----------------|
G|-5----------------------------------------|
D|-5----------------------------------------|
A|-3----------------------------------------|
E|------------------------------------------|#/6t2##/6t1#

#7t1#   Bb       Eb 
#7t2#E|-1-3-3/5--3-3-1-1-------------------------|
B|-3-4-4/6--4-4-3-3--4-4-3------------------|
G|-------------------5-5-3------------------|
D|------------------------------------------|
A|------------------------------------------|
E|------------------------------------------|#/7t2##/7t1#

[Segunda Parte]

Cm                               F
   Se você me falta tudo é sofrimento
Bb                                     Eb
   Sei que é tarde demais pra se remediar
Cm                                      F
   De nada adianta procurar dez mil desculpas
Bb                                      Eb
   Está difícil de fazer você voltar atrás

[Pré-Refrão]

          Cm                                         F
Mesmo que eu te diga estou morrendo um pouco a cada dia
          Bb                                Eb
Mesmo que eu te peça por favor vamos recomeçar
             Cm                                    F
Porque a saudade está quebrando o que resta da minha ilusão
    Eb               Bb                  Cm               
Preciso juntar os pedaços dentro do meu coração 
             F
Por isso eu juro que

[Refrão]

             Bb             
Eu deixaria tudo se você ficasse
                    Eb
Meus sonhos meu passado  minha religião
                  F
Depois de tudo estás fugindo dos meus braços
              Bb
Deixando o silêncio desta solidão
              Eb                               Bb       F/A  
Não sei o que eu faria desejos loucuras todas fantasias
Gm                  Cm          Eb          
   Nada tenho a perder diz pra mim 
       F                       
O que mais você quer

             Bb             
Eu deixaria tudo se você ficasse
                    Eb
Meus sonhos meu passado  minha religião
                  F
Depois de tudo estás fugindo dos meus braços
              Bb
Deixando o silêncio desta solidão
              Eb                               Bb       F/A  
Não sei o que eu faria desejos loucuras todas fantasias
Gm                  Cm          Eb          
   Nada tenho a perder diz pra mim 
       F                       Eb  Bb/D  Cm  Bb
O que mais você quer da minha vida
Composição: Fábio Alonso Salgado / José Angel Ramon Robles RamalloColaboração e revisão: Thiago AlmeidaMarcos PauloJoão MaiaRafael