busca

Eu Vou Doar o Meu Coração

João Bosco e Vinícius

Tom: G
(intro) G  C  G  C  

E|----------------8---7-----------------------------------|
B|---5--3----------------------10-----8-------------------|
G|----------(s)7---7--------------------------------------|
D|-5--5-----------------(s)10-----9-----------------------|
A|--------------------------------------------------------|
E|--------------------------------------------------------|

G                                                                    D
Amigo por favor me dê uma ajuda eu não sei o que que eu faço, estou fora de mim...
C                                                      G
Perdi aquilo tudo que tinha quando ela me deixou, eu fiquei assim ....
G                                                        D
Amigo como é que eu te ajudo pra te falar a verdade... também tô sofrendo...
C                                                                  G      G7
Não dei o valor que ela queria, não cuidei do nosso amor, acabei perdendo.

C
O meu coração não serve pra nada,
                              G        C
Ele só anda nas madrugadas, solitário, eu avisei eu te falei pra não se apaixonar
         D
Coração Otárioo...

(refrão)
         D            Em                C                     G
Eu vou doar o meu coração porque no leilão não tive nenhum lance
            D                 Em
Dentro de mim ele sofre de paixão
           C            D               G      G G Em D
só vai melhorar se ela me der outra chance
         D            Em                C                     G
Eu vou doar o meu coração porque no leilão não tive nenhum lance
           D                  Em
Dentro de mim ele sofre de paixão
           C            D                G
só vai melhorar se ela me der outra chance...

(solo 2x) D  Em  C  G  

E|------------------------------------------------8-------|
B|---------7--7--7--7---7--5--5---7---7--5----------------|
G|------------------------------------------(s)9----------| 
D|--(s)77---7--7--9---7--5------9---7--5------------------|
A|--------------------------------------------------------|
E|--------------------------------------------------------|

( D )

G
Amigo como é que te ajudo para te falar a verdade...

(final)

E|------------------------------------------------8------10-15--15--|
B|---------7--7--7--7---7--5--5---7---7--5--------------------------|
G|------------------------------------------(s)9----(s)11---16--16--|
D|--(s)77---7--7--9---7--5------9---7--5----------------------------|
A|------------------------------------------------------------------|
E|------------------------------------------------------------------|

Clipes

Cifra Club Pro

Aproveite o Cifra Club com benefícios exclusivos e sem anúncios
Cifra Club Pro
Aproveite o Cifra Club com benefícios exclusivos e sem anúncios