Eu Vou Doar o Meu Coração

João Bosco e Vinícius

C
123
X32010
D
123
XX0232
Em
12
022000
G
123
320003
G7
34
353433
Tom: G
(intro) G  C  G  C  

#1t1##1t2#E|----------------8---7-----------------------------------|
B|---5--3----------------------10-----8-------------------|
G|----------(s)7---7--------------------------------------|
D|-5--5-----------------(s)10-----9-----------------------|
A|--------------------------------------------------------|
E|--------------------------------------------------------|#/1t2##/1t1#

G                                                                    D
Amigo por favor me dê uma ajuda eu não sei o que que eu faço, estou fora de mim...
C                                                      G
Perdi aquilo tudo que tinha quando ela me deixou, eu fiquei assim ....
G                                                        D
Amigo como é que eu te ajudo pra te falar a verdade... também tô sofrendo...
C                                                                  G      G7
Não dei o valor que ela queria, não cuidei do nosso amor, acabei perdendo.

C
O meu coração não serve pra nada,
                              G        C
Ele só anda nas madrugadas, solitário, eu avisei eu te falei pra não se apaixonar
         D
Coração Otárioo...

(refrão)
         D            Em                C                     G
Eu vou doar o meu coração porque no leilão não tive nenhum lance
            D                 Em
Dentro de mim ele sofre de paixão
           C            D               G      G G Em D
só vai melhorar se ela me der outra chance
         D            Em                C                     G
Eu vou doar o meu coração porque no leilão não tive nenhum lance
           D                  Em
Dentro de mim ele sofre de paixão
           C            D                G
só vai melhorar se ela me der outra chance...

(solo 2x) D  Em  C  G  

#2t1##2t2#E|------------------------------------------------8-------|
B|---------7--7--7--7---7--5--5---7---7--5----------------|
G|------------------------------------------(s)9----------| 
D|--(s)77---7--7--9---7--5------9---7--5------------------|
A|--------------------------------------------------------|
E|--------------------------------------------------------|#/2t2##/2t1#

( D )

G
Amigo como é que te ajudo para te falar a verdade...

(final)

#3t1##3t2#E|------------------------------------------------8------10-15--15--|
B|---------7--7--7--7---7--5--5---7---7--5--------------------------|
G|------------------------------------------(s)9----(s)11---16--16--|
D|--(s)77---7--7--9---7--5------9---7--5----------------------------|
A|------------------------------------------------------------------|
E|------------------------------------------------------------------|#/3t2##/3t1#
Composição: Euler Coelho / Fabio Viana / Flávinho Tinto / GUILHERME DANTAS / Gustavo Beltrão / Higor Mendes / Kleo DibahColaboração e revisão: Eduardo SanchezWILLIAN MARTINSÁdamo OliveiraMarcel Oliveirae mais 5