busca

Ex-Amor

João Bosco e Vinícius

Tom: D
(intro)

E |-------------0--4~--2-0-2-4--------------4-----4--2~-
B |--2--2h4--2-------------------2--2h4--2-----2--------
G |-----------------------------------------------------
D |-----------------------------------------------------
A |-----------------------------------------------------
E |-----------------------------------------------------

E |-----------------5~-----------------0-4-2------------
B |--2-2h7-6-2--4--2------2-4-2-4-6-7-------------------
G |-----------------------------------------------------
D |-----------------------------------------------------
A |-----------------------------------------------------
E |-----------------------------------------------------

            E
Eu tive um amor
            B
Amor tão bonito
               A
Daqueles que matam
                  E   (B)
Com sabor de saudade
          E
Meu ex-amor
                        B
Tem coisas que a gente não esquece
               A
Mas você não merece
       E
Tanta dor
E7              A
Foi bonito demais
             E
Mas eu estou sozinho
         A
Foi rico de amor
                E
Hoje estou tão só

(repete intro)

Clipes

Cifra Club Pro

Aproveite o Cifra Club com benefícios exclusivos e sem anúncios
Cifra Club Pro
Aproveite o Cifra Club com benefícios exclusivos e sem anúncios