busca

Falando Sério

João Bosco e Vinícius

Tom: G
(intro) C  D  Em7

(solo)

(parte 1)
E|---------------------------------------------------|
B|-7/8p7-----------------13-15/17-15-----------------|
G|-------9-7-9~-------12-----------------------------|
D|-----------------14--------------------------------|
A|--------------15-----------------------------------|
E|---------------------------------------------------|

(parte 2)
E|---------------------------------------------------|
B|-7/8p7-------------7-8-10-8p7-8--------------------|
G|-------9-7-9~--7-9---------------------------------|
D|---------------------------------------------------|
A|---------------------------------------------------|
E|---------------------------------------------------|

(parte 3 - repete parte 1)

(parte 4)
E|---------------------------------------------------|
B|-7/8p7--------7-8/10-8~----------------------------|
G|-------9-7-9~--------------------------------------|
D|---------------------------------------------------|
A|---------------------------------------------------|
E|---------------------------------------------------|

(primeira parte)

(o primeiro ritmo dessa parte é diferenciado)

   C9            D9            Em
E|---3-------------5-------------7----------|
B|---3-----3-------5-----5-------8-----8----|
G|-5-5-x-x-5-x-5/7-7-x-x-7-x-7/9-9-x-x-9-9--|
D|-5-5-x-x-5-x-5/7-7-x-x-7-x-7/9-9-x-x-9-9--|
A|-3---x-x---x-3/5---x-x---x-5/7---x-x---7--|
E|------------------------------------------|

E|------------------------------------------|
B|-8-8-8-8p7--------------------------------|
G|-7-7-7-7---9-7----------------------------|
D|-----------9-7----------------------------|
A|------------------------------------------|
E|------------------------------------------|

(parte 1)
                C9               D9
Você não tem limite você não tem hora
              Em
Liga pra brincar com o meu sentimento
               C9              D9
Faz proposta que sempre me apavora
               Em
Sabe o que é amar e tá perdendo tempo

(parte 2)
            C                    D
Você me provoca eu entro no seu jogo
             Em
Sabe dar as cartas sabe me ganhar
           C                  D
Me coloca sempre em prova de fogo
                    Em
É tudo o que eu preciso pra me entregar

(refrão)
             C                     D
Pare de uma vez com essa brincadeira
            Em7
Chega de bobeira eu tô falando sério
                C                         D
Preciso desse amor, te amar a noite inteira
             Em7
Se você me quer saiba eu também te quero

(repete intro)

(repete toda a música)

    C  D                Em7
oh uoh   eu to falando serio..
    C  D                      Em7
oh uoh   saiba eu tambem te quero....

(revisão - Gustavo Fofão)

Clipes

Cifra Club Pro

Aproveite o Cifra Club com benefícios exclusivos e sem anúncios
Cifra Club Pro
Aproveite o Cifra Club com benefícios exclusivos e sem anúncios