busca

Final de Semana

João Bosco e Vinícius

Tom: D
Intro 2x: D  A  Bm  G
                                                               (2x)  H.N
E|--0-0-0-0-2-2------|------------------------------------2-2------|--7--|
B|--------------3-3--|--3-3-3-2h3-3-3-2h3-3-3-2h3--5-5-5------3-3--|-----|
G|-------------------|---------------------------------------------|-----|
D|-------------------|---------------------------------------------|-----|
A|-------------------|---------------------------------------------|-----|
E|-------------------|---------------------------------------------|-----|


D                                      A
Só depois daquele beijo despertou o meu desejo
Bm                                      G
Fiquei todo arrepiado com o seu beijo roubado
D                                       A
Se fazendo de difícil, quer ficar sem compromisso
Bm                                      G
Com essa cara deslavada, finge estar apaixonada

D                 A
Mas não adianta, não engana
                  Bm   A   G
Vai fazer a sua fama
                   D
E achar o que procurou

   A          Bm
Amor, me dá um beijo,
             G                                   D
Vem matar essa vontade, vem dormir na minha cama
     A
Uouou
        Bm                       G
Eu posso te fazer feliz por toda a vida
        A9           D
e mais um final de semana (2x)

Intro 2x: D  A  Bm  G
                                           (2x)  H.N
E|------------------------------------2-2------|--7--|
B|--3-3-3-2h3-3-3-2h3-3-3-2h3--5-5-5------3-3--|-----|
G|---------------------------------------------|-----|
D|---------------------------------------------|-----|
A|---------------------------------------------|-----|
E|---------------------------------------------|-----|


D                                 A
Só depois daquele beijo despertou o meu desejo
Bm                                     G
Fiquei todo arrepiado com o seu beijo roubado
D                                        A
Se fazendo de difícil, quer ficar sem compromisso
Bm                                   G
Com essa cara deslavada, finge estar apaixonada
D                   A
Mas não adianta, não engana
                 Bm  A  G
Vai fazer a sua fama
                    D
E achar o que procurou

   A         Bm
Amor, me dá um beijo,
          G                                D
Vem matar essa vontade, vem dormir na minha cama
     A
Uouou
    Bm                          G
Eu posso te fazer feliz por toda a vida
         A9          D
e mais um final de semana  (4x)

Clipes

Cifra Club Pro

Aproveite o Cifra Club com benefícios exclusivos e sem anúncios
Cifra Club Pro
Aproveite o Cifra Club com benefícios exclusivos e sem anúncios