busca

Indescritível

João Bosco e Vinícius

Tom: A#
E|------------------------------------------------
B|-------------------------------------------6-6--
G|-------5-2---------3-5-----------5-2------------
D|--2/3---------2/3---------2/3-------------------
A|------------------------------------------------
E|------------------------------------------------
Solo 1


Bb9       F          Gm        Eb
Tô no trabalho, pensamento em você
Bb9             F       Gm        Eb
Tão desconcentrado só penso em te ver
Bb9                     F                       Gm          Eb
Pra onde quer que eu olhe em cada canto você parece estar aqui
Bb9                F                       Gm           Eb
Até no doce do café que eu bebo seu beijo vem me perseguir
            Gm Eb
Tô ficando louco
        Bb        F
TO perdendo a noção
            Gm   Eb
Eu nesse sufoco
           Bb             F
Tô desconfiado que é paixão

Refrão
Gm                           Eb           Bb9
Não tem jeito eu vou fugir desse lugar agora
      F              Gm
Vou correndo te encontrar
                     Eb                 Bb9
No caminho compro flores nossa noite de amor
            F       Cm
As flores vão testemunhar
                       Eb                            F
Indescritível é a sensação que rola sempre quando a gente se vê
Cm                  Bb         Eb Eb                  Bb9 F Gm Eb
A noite se cala e o mundo todo para…só pra eu amar você.

E|---------------------------------------------
B|---------------------------------------------
G|-------5-2---------3-5-----------------------
D|--2/3---------2/3----------------------------
A|---------------------------------------------
E|---------------------------------------------
Solo 2

Bb9       F          Gm        Eb
Tô no trabalho, pensamento em você
Bb9             F       Gm        Eb
Tão desconcentrado só penso em te ver
Bb9                     F                       Gm          Eb
Pra onde quer que eu olhe em cada canto você parece estar aqui
Bb9                F                       Gm           Eb
Até no doce do café que eu bebo seu beijo vem me perseguir
            Gm Eb
Tô ficando louco
        Bb        F
To perdendo a noção
            Gm   Eb
Eu nesse sufoco
           Bb             F
Tô desconfiado que é paixão

Refrão
Gm                           Eb           Bb9
Não tem jeito eu vou fugir desse lugar agora
      F              Gm
Vou correndo te encontrar
                     Eb                 Bb9
No caminho compro flores nossa noite de amor
            F       Cm
As flores vão testemunhar
                       Eb                            F
Indescritível é a sensação que rola sempre quando a gente se vê
Cm                  Bb         Eb Eb                  Bb9 F Gm Eb
A noite se cala e o mundo todo para…só pra eu amar você.


E|--------------------------------13-12------------
B|--6/11--10/11-13--13-11-13/15---------13---------
G|-------------------------------------------------
D|-------------------------------------------------
A|-------------------------------------------------
E|-------------------------------------------------
Solo 3

REFRÃO E ACABA com o Solo 2

Clipes

Cifra Club Pro

Aproveite o Cifra Club com benefícios exclusivos e sem anúncios
Cifra Club Pro
Aproveite o Cifra Club com benefícios exclusivos e sem anúncios