Querendo te encontrar

João Bosco e Vinícius

A
123
X02220
A9
12
X02200
D
123
XX0232
D#
234
X65343
D#7
1234
X6564X
D9
12
XX0230
E7
1234
022130
F#m
34
244222
Tom: G
[Intro] A9  D9  A9  D9
        A  D  A  D
        A  D  A  E7

#1t1##1t2#E|---9-9--7--9--7--9--7-9/10---9-9--7--9--7--9-9/12--10-|
B|------------------------------------------------------|
G|---9-9--7--9--7--9--7-9/11---9-9--7--9--7--9-9/13--10-|
D|------------------------------------------------------|
A|------------------------------------------------------|
E|------------------------------------------------------|#/1t2##/1t1#

#2t1##2t2#E|---9-9--7--9--7--9--7-9/10--9-9--7--9--7--9--5--5/7---|
B|------------------------------------------------------|
G|---9-9--7--9--7--9--7-9/11--9-9--7--9--7--9--5--5/7---|
D|------------------------------------------------------|
A|------------------------------------------------------|
E|------------------------------------------------------|#/2t2##/2t1#

A                    D
Tava cansado de te procurar
A                      D
Tá tudo errado sem você pra amar
A                  D
Me diz a onde você se meteu
A                 D
O meu destino é o mesmo que o seu

A                      D
To me sentindo meio esquecido
A                 D
Abandonado, num caminho perdido
A                    D
logo a noite hora de descansar
A                   D
eu vou sair por ai
              E7         D# D
Pra tentar te procurar

D                        E7
Eu vou nas festas só pra ver se eu te encontro
A                   F#m
Nesta cidade não esta em nenhum canto
D                  E7                        A            E7 D#7
Volto pra casa sem noticias, mas um dia eu não te encontrei
D                         E7
Faço outras coisas pra tentar me distrair
A                      F#m
Ultimamente não consigo nem dormir
D                        E7               A        E7
to precisando te esquecer se você não aparecer

[Refrão]

A                  D
Cada vez que eu te busco não esta
A               D
Cada vez que eu te ligo é espera
A                   D                   A
E é por isso que eu sonho e acordo todo dia
          D               A
Buscando, querendo te encontrar

A                  D
Cada vez que eu te busco não esta
A               D
Cada vez que eu te ligo é espera
A                   D                   A
E é por isso que eu sonho e acordo todo dia
          D               A
Buscando, querendo te encontrar

( A9  D9  A9  D9 )
( A  D  A  D )
( A  D  A  E7 )

#3t1##3t2#E|---9-9--7--9--7--9--7-9/10---9-9--7--9--7--9-9/12--10-|
B|------------------------------------------------------|
G|---9-9--7--9--7--9--7-9/11---9-9--7--9--7--9-9/13--10-|
D|------------------------------------------------------|
A|------------------------------------------------------|
E|------------------------------------------------------|#/3t2##/3t1#

#4t1##4t2#E|---9-9--7--9--7--9--7-9/10--9-9--7--9--7--9--5--5/7---|
B|------------------------------------------------------|
G|---9-9--7--9--7--9--7-9/11--9-9--7--9--7--9--5--5/7---|
D|------------------------------------------------------|
A|------------------------------------------------------|
E|------------------------------------------------------|#/4t2##/4t1#

A                      D
To me sentindo meio esquecido
A                 D
Abandonado, num caminho perdido
A                    D
logo a noite hora de descansar
A                   D
eu vou sair por ai
              E7         D# D
Pra tentar te procurar

D                        E7
Eu vou nas festas só pra ver se eu te encontro
A                   F#m
Nesta cidade não esta em nenhum canto
D                  E7                        A            E7 D#7
Volto pra casa sem noticias, mas um dia eu não te encontrei
D                         E7
Faço outras coisas pra tentar me distrair
A                   F#m
Ultimamente não consigo nem dormir
D                        E7               A        E7
to precisando te esquecer se você não aparecer

[Refrão]

A                  D
Cada vez que eu te busco não esta
A               D
Cada vez que eu te ligo é espera
A                   D                   A
E é por isso que eu sonho e acordo todo dia
          D               A
Buscando, querendo te encontrar

A                  D
Cada vez que eu te busco não esta
A               D
Cada vez que eu te ligo é espera
A                   D                   A
E é por isso que eu sonho e acordo todo dia
          D               A
Buscando, querendo te encontrar

( A9  D9  A9  D9 )
( A  D  A  D )
( A  D  A  E7 )

#5t1##5t2#E|---9-9--7--9--7--9--7-9/10---9-9--7--9--7--9-9/12--10-|
B|------------------------------------------------------|
G|---9-9--7--9--7--9--7-9/11---9-9--7--9--7--9-9/13--10-|
D|------------------------------------------------------|
A|------------------------------------------------------|
E|------------------------------------------------------|#/5t2##/5t1#

#6t1##6t2#E|---9-9--7--9--7--9--7-9/10--9-9--7--9--7--9--5--5/7---|
B|------------------------------------------------------|
G|---9-9--7--9--7--9--7-9/11--9-9--7--9--7--9--5--5/7---|
D|------------------------------------------------------|
A|------------------------------------------------------|
E|------------------------------------------------------|#/6t2##/6t1#
Composição: João Bosco / ViniciusColaboração e revisão: Thiago AlmeidaDiego TheodoroVitor Rossievaristo silveirae mais 1