A#m
234
X13321
B
234
X24442
B7
1234
X21202
Bb7
34
X13131
D#m
1234
XX1342
Db
234
X46664
E
123
022100
Ebm
1234
XX1342
G#m
34
466444
Gb
234
244322
Tom: G
#1t1#Intro:
    Gb                     D#m                     B                Db
#1t2#E|--------6----------------------6--------------------------------------------------|
B|--7---7---9-7-6-7--------7---9---7--6--7---------5---6--7----6----7----8---9------|
G|----6----------------------6-----------------------8------------------------------|
D|----------------------------------------------------------------------------------|
A|----------------------------------------------------------------------------------|
E|----------------------------------------------------------------------------------|#/1t2##/1t1#
#2t1#     Gb                      D#m                  B              Db
#2t2#E|---------6--------------------6---------------------------------------------6-----|
B|---7---7---9--7--6--7-------7---9--7--6--7-------5--6--7------6--7--8--9------7---|
G|-----6--------------------6--------------------8----------------------------------|
D|----------------------------------------------------------------------------------|
A|----------------------------------------------------------------------------------|
E|----------------------------------------------------------------------------------|#/2t2##/2t1#

Gb                                      B                      Gb  E B
A gente se ama de um jeito gostoso que só nós dois sabemos fazer
Gb                                        B                    Db
E juntos vivemos momentos que o tempo , não vai conseguir apagar
B                 B7            Bb7           Ebm
Somos amantes perfeitos e como gosto de ser assim
         B                  Db                Gb   Db
Sou tão você que as vezes sinto saudades de mim

Gb                                    B             Gb   E B
Vivo sonhando acordado que estou, colado no seu calor
Gb                                   B                       Db
E dá dessa fonte um mel que a gente faz um troca-troca de amor
B                      B7           Bb7                Ebm
Viajo no seu corpo despido e suas carícias me deixam assim
         B                 Db                 Gb   Gb G#m A#m B
Sou tão você que as vezes sinto saudades de mim

B                 Db            Gb
ahh.. faz desse jeito comigo não
      B          Bb7                  Ebm
Meu amor , por favor não me torture assim
         B                Db                Gb
Sou tão você que as vezes sinto saudades de mi
Composição: DivaneyColaboração e revisão: José FranciscoEl ChikRodrigo MeloThiago Freitas