busca

Saudades de Mim

João Bosco e Vinícius

Tom: C#
Intro:
    F#                     D#m                     B                C#
E|--------6----------------------6--------------------------------------------------|
B|--7---7---9-7-6-7--------7---9---7--6--7---------5---6--7----6----7----8---9------|
G|----6----------------------6-----------------------8------------------------------|
D|----------------------------------------------------------------------------------|
A|----------------------------------------------------------------------------------|
E|----------------------------------------------------------------------------------|
     F#                      D#m                  B              C#
E|---------6--------------------6---------------------------------------------6-----|
B|---7---7---9--7--6--7-------7---9--7--6--7-------5--6--7------6--7--8--9------7---|
G|-----6--------------------6--------------------8----------------------------------|
D|----------------------------------------------------------------------------------|
A|----------------------------------------------------------------------------------|
E|----------------------------------------------------------------------------------|

F#                                      B                      F#  E B
A gente se ama de um jeito gostoso que só nós dois sabemos fazer
F#                                        B                    C#
E juntos vivemos momentos que o tempo , não vai conseguir apagar
B                 B7            Bb7           Ebm
Somos amantes perfeitos e como gosto de ser assim
         B                  C#                F#   C#
Sou tão você que as vezes sinto saudades de mim

F#                                    B             F#   E B
Vivo sonhando acordado que estou, colado no seu calor
F#                                   B                       C#
E dá dessa fonte um mel que a gente faz um troca-troca de amor
B                      B7           Bb7                Ebm
Viajo no seu corpo despido e suas carícias me deixam assim
         B                 C#                 F#   F# G#m A#m B
Sou tão você que as vezes sinto saudades de mim

B                 C#            F#
ahh.. faz desse jeito comigo não
      B          Bb7                  Ebm
Meu amor , por favor não me torture assim
         B                C#                F#
Sou tão você que as vezes sinto saudades de mi

Clipes

Cifra Club Pro

Aproveite o Cifra Club com benefícios exclusivos e sem anúncios
Cifra Club Pro
Aproveite o Cifra Club com benefícios exclusivos e sem anúncios