Sem Esse Coração

João Bosco e Vinícius

Am7
12
X02010
Am7/E
1234
XX2213
C
123
X32010
C4+
234
X34553
D
123
XX0232
D11
1234
X54035
D4
123
XX0233
D9
12
XX0230
D9(11)
123
X54030
Em
12
022000
Em7
123
022030
G
123
320003
Tom: G
(intro)

#1t1#(parte 1)
     Em
#1t2#E|-3----------------------------------------|
B|-3----------------------------------------|
G|-3----------------------------------------|
D|-5---5-5h7-8--10/12-10-7h8p7--------------|
A|-5---5-5---------------------10-----------|
E|-3-3-3-3h5-6---8/10-8---------------------|#/1t2##/1t1#

#2t1#(parte 2)
                  Em
#2t2#E|--------------3---------------------------|
B|--------------3---------------------------|
G|-8-8-8p7------3---------------------------|
D|---------10p8-5---------------------------|
A|--------------5---------------------------|
E|--------------3---------------------------|#/2t2##/2t1#

(primeira parte)

#3t1#     D9              Em7         G  D4 D   Em
#3t2#E|-------3---------------------6--6--5---3--|
B|-----6---6-------------6-6/8-6--6--6-6-3--|
G|---5-----------------3-------3--5--5-5-3--|
D|-3-----------------5---------3--3--3-3-5--|
A|-----------------------------5---------5--|
E|-----------5h6-5-3-----------6---------3--|#/3t2##/3t1#

         D9                         Em7
  Eu queria, amar um pouco menos você
G            D4 D                            Em
  O meu coração, só apanha e vai parar de bater

(segunda parte)

G          D        C         D9(11)  Em
  Se eu pudesse, tirava esse meu coração
G          D                 Am7   D9(11)   Em
  Pra deletar a saudade e o toque das suas mãos

#4t1#     C4+             D11
#4t2#E|------------------------------------------|
B|------------------------------------------|
G|----3-----3--------3-----3----------------|
D|------7-----7---7----7-----7---7----------|
A|--6-----6-----6---8----8-----8------------|
E|------------------------------------------|#/4t2##/4t1#

#5t1#    C4+                  D11
#5t2#E|------------------------------------------|
B|------------------------------------------|
G|---3-----3---------3----3-----3-----3-----|
D|-----7-----7---7----7-----7-----7-----7---|
A|-6-----6-----6---8----8-----8-----8-----8-|
E|------------------------------------------|#/5t2##/5t1#

#6t1##6t2#E|------------------------------------------|
B|------------------------------------------|
G|-3----------------------------------------|
D|---7--------------------------------------|
A|-----8------------------------------------|
E|------------------------------------------|#/6t2##/6t1#

     C4+        D11
E parava de sofrer!
     C4+        D11
E parava de sofrer!

(refrão)
Em                   C
  E mesmo assim, sem esse coração
          G                       D D4 D D9
Eu acho que vou continuar te amando
Em                   C
  E mesmo assim, sem esse coração
          G                      D D4 D D9
Eu acho que vou continuar chorando
Em                   C
  E mesmo assim, sem esse coração
          G                       D D4 D D9
Eu acho que vou continuar te amando
Em                   C
  E mesmo assim, sem esse coração
          G                      D D4 D D9
Eu acho que vou continuar chorando

(* logo depois do refrão, tem esse solo,
bem parecido com o do início)

#7t1#(parte 1)
    Em
#7t2#E|-3----------------------------------------|
B|-3----------------------------------------|
G|-3----------------------------------------|
D|-5---5-5h7-8--10/12-10-7h8p7--------------|
A|-5---5-5---------------------10-----------|
E|-3-3-3-3h5-6---8/10-8---------------------|#/7t2##/7t1#

#8t1#(parte 2)
           Em
#8t2#E|-----3---3---------------------------|
B|---------3---------------------------|
G|---------3---------------------------|
D|-7h8-----5---------------------------|
A|---------5---------------------------|
E|---------3---------------------------|#/8t2##/8t1#

(* a partir daí, a música repete as pts 1, 2 e o refrão)

(solo final)

#9t1#   Em                           Am7/E
#9t2#E|-3----------------------------3-----------|
B|-3----------------------------4-----------|
G|-3----------------------------3-----------|
D|-5---5-5h7-8--10/12-10-7h8p7--5-----------|
A|-5---5-5----------------------3-----------|
E|-3-3-3-3h5-6---8/10-8---------3-----------|#/9t2##/9t1#
Composição: Breno / DeLuCaColaboração e revisão: Eduardo chagasJeferson FreireMatheus GugelmimVinicius Paulae mais 6
Videoaula Sem Esse Coração (aula de violão completa)