Sorte É Ter Você

João Bosco e Vinícius

A
123
X02220
A9
12
X02200
B
234
X24442
B9
34
X24422
C#m
234
X46654
E
123
022100
E/G#
1234
4X245X
F#
234
244322
F#m
34
244222
Tom: G
[Intro] C#m  E  B9  F#

[Solo]

#1t1##1t2#E|---4-4------------------4-4-------------7-4-|
B|--------7-7--5-5-------------7-7--5-5-------|
G|-------------------6-6----------------------|
D|--------------------------------------------|
A|--------------------------------------------|
E|--------------------------------------------|#/1t2##/1t1#

#2t1##2t2#E|--------------------------------------------|
B|------5-5/7---4~---------7/9--7--2~---------|
G|--------------------------------------------|
D|--------------------------------------------|
A|--------------------------------------------|
E|--------------------------------------------|#/2t2##/2t1#

    C#m                                   E
Eu venho de sonhos vividos, amores fracassados
                                 B9
Ilusões perdidas, passos caminhados
                                    F#  A  B9
De um deserto que eu tento me esconder

   C#m                                E
Andei por toda a cidade, coração quebrado
                                      B9
Sem querer, eu sempre quis alguém do lado
                              F#  E/G#
E o destino veio e me trouxe você

A                              E
  E o meu coração partido em ruínas
                                B9
Se reconstruiu, no seu olhar menina
                F#m  E/G#
Eu quero te querer
A                                 E
  De tantas Renatas, Flávias e Carinas
                              B9
Conheci mil Anas, muitas Carolinas
     A       B     E  A  B9
Mas sorte é ter você

[Refrão]

  E                                   B9
Amor, se me chamar, se me quiser, eu vou
                       C#m
Pra ser o seu anjo da noite
                            A9
E todo dia te acordar com flores

  E                                   B9
Amor, se me chamar, se me quiser, eu vou
                       C#m
Pra ser o seu anjo da noite
                            A9   B9
E todo dia te acordar com flores

A                              E
  E o meu coração partido em ruínas
                                B9
Se reconstruiu, no seu olhar menina
                F#m  E/G#
Eu quero te querer
A                                 E
  De tantas Renatas, Flávias e Carinas
                              B9
Conheci mil Anas, muitas Carolinas
     A       B     E  A  B9
Mas sorte é ter você

[Refrão]

  E                                   B9
Amor, se me chamar, se me quiser, eu vou
                       C#m
Pra ser o seu anjo da noite
                            A9
E todo dia te acordar com flores

  E                                   B9
Amor, se me chamar, se me quiser, eu vou
                       C#m
Pra ser o seu anjo da noite
                            A9   B9
E todo dia te acordar com flores

[Solo] C#m  E  B9  F#  A9

#3t1##3t2#E|---4----------------4-----7--4~---|
B|--------7---5---2~-----7----------|
G|----------------------------------|
D|----------------------------------|
A|----------------------------------|
E|----------------------------------|#/3t2##/3t1#

#4t1##4t2#E|----------------------------------|
B|------5-5/7---4~---7/9--7--2~-----|
G|----------------------------------|
D|----------------------------------|
A|----------------------------------|
E|----------------------------------|#/4t2##/4t1#
Composição: Cláudio Noam / Diego Faria / Euler Coelho / Kleo Dibah / Rafael / Rafael OliveiraColaboração e revisão: Thiago AlmeidaMarcos PauloWezer CarvalhoPauloe mais 3