Super Homem Chora

João Bosco e Vinícius

A#m
234
X13321
G#
234
431114
Gb
234
244322
Tom: G
[Intro] Gb  G#  A#m

#1t1##1t2#E|------4-1-------4-1-------1h2-1h2-1--------------|
B|-----------4-2-------4-2-------------2-----------|
G|-1/3------------------------------------3--------|
D|-------------------------------------------------|
A|-------------------------------------------------|
E|-------------------------------------------------|#/1t2##/1t1#

[Primeira Parte]

 Gb                     G#
Mais um episódio dessa série sem final
          A#m
Coisa do coração, do coração
Gb                      G#
Outra briga outra confusão
                              A#m
Quem é o mocinho? Qual é o vilão?

[Segunda Parte]

              Gb
Ele já está moendo
             G#
A vida continua
               A#m
Já saiu, já bebeu, já ta todo empolgada com boca de rua

[Pré-Refrão]

                     Gb
Ela está em outro nível
                 G#
Escolheu não sofrer
            A#m
E ele lá achando que tem um super poder de esquecer

[Refrão]

             Gb                  G#
Quando a mulher maravilha vai embora
                A#m
O super-homem chora, ele chora
             Gb                  G#
Quando a mulher maravilha vai embora
                A#m
O super-homem chora
Ela sabe que ele voa e volta

             Gb                  G#
Quando a mulher maravilha vai embora
                A#m
O super-homem chora, ele chora
             Gb                  G#
Quando a mulher maravilha vai embora
                A#m
O super-homem chora
Ela sabe que ele voa e volta

[Solo] Gb  G#  A#m
       Gb  G#  A#m

#2t1##2t2#E|-1-1-1--4-4-1-1----------------------------------|
B|-----------------4-4-2-2-4-4-2-2-1-2-1-2--1------|
G|---------------------------------------------3~--|
D|-------------------------------------------------|
A|-------------------------------------------------|
E|-------------------------------------------------|#/2t2##/2t1#

#3t1##3t2#E|-1-1-1--4-4-1-1----------------------------------|
B|-----------------4-4-2-2-4-4-2-2-1-2--1----------|
G|-------------------------------------------------|
D|-------------------------------------------------|
A|-------------------------------------------------|
E|-------------------------------------------------|#/3t2##/3t1#

#4t1##4t2#E|-1h2-1h2-1---------------------------------------|
B|------------2------------------------------------|
G|---------------3---------------------------------|
D|-------------------------------------------------|
A|-------------------------------------------------|
E|-------------------------------------------------|#/4t2##/4t1#

[Segunda Parte]

              Gb
Ele já está moendo
             G#
A vida continua
               A#m
Já saiu, já bebeu, já ta todo empolgada com boca de rua

[Pré-Refrão]

                     Gb
Ela está em outro nível
                 G#
Escolheu não sofrer
            A#m
E ele lá achando que tem um super poder de esquecer

[Refrão]

             Gb                  G#
Quando a mulher maravilha vai embora
                A#m
O super-homem chora, ele chora
             Gb                  G#
Quando a mulher maravilha vai embora
                A#m
O super-homem chora
Ela sabe que ele voa e volta

             Gb                  G#
Quando a mulher maravilha vai embora
                A#m
O super-homem chora, ele chora
             Gb                  G#
Quando a mulher maravilha vai embora
                A#m
O super-homem chora
Ela sabe que ele voa e volta

             Gb                  G#
Quando a mulher maravilha vai embora
                A#m
O super-homem chora, ele chora

( Gb  G#  A#m )

Ela sabe que ele voa e volta

[Ponte] Gb  G#  A#m

#5t1##5t2#E|-1-1-1--4-4-1-1----------------------------------|
B|-----------------4-4-2-2-4-4-2-2-1-2-1-2--1------|
G|---------------------------------------------3~--|
D|-------------------------------------------------|
A|-------------------------------------------------|
E|-------------------------------------------------|#/5t2##/5t1#

             Gb                  G#
Quando a mulher maravilha vai embora
                A#m
O super-homem chora
Ela sabe que ele voa e volta

[Final] Gb  G#  A#m

#6t1##6t2#E|-1-1-1--4-4-1-1----------------------------------|
B|-----------------4-4-2-2-4-4-2-2-1-2--1----------|
G|-------------------------------------------------|
D|-------------------------------------------------|
A|-------------------------------------------------|
E|-------------------------------------------------|#/6t2##/6t1#

#7t1##7t2#E|-1h2-1h2-1---------------------------------------|
B|------------2------------------------------------|
G|---------------3---------------------------------|
D|-------------------------------------------------|
A|-------------------------------------------------|
E|-------------------------------------------------|#/7t2##/7t1#
Composição: Colaboração e revisão: Thiago Almeida