A
123
X02220
Bm7
34
X24232
D9
12
XX0230
D9/G
123
3XX230
E
123
022100
F#m7
1234
2X222X
Tom: G
#1t1#(riff 1)
#1t2#E|--------|
B|--------|
G|--------|
D|-3/10-3-|
A|-3/10-3-|
E|-3/10-3-|#/1t2##/1t1#

( A E D9/G A E A E D9/G E A )

#2t1##2t2#E|---------------------------------------------------|
B|-1h3-3-3-3-1-1----1-1-1-------------3/4-3-1-3--1-1-|
G|---------------3--------3-3-2-3/5-3----------------|
D|---------------------------------------------------|
A|---------------------------------------------------|
E|---------------------------------------------------|#/2t2##/2t1#

#3t1##3t2#E|---------------------------------------------------|
B|-1h3-3-3-3-1-1---1h3--1-1-1-------------3/4-3-1----|
G|---------------3-----------3-3-2-3/5-3----------3--|
D|---------------------------------------------------|
A|---------------------------------------------------|
E|---------------------------------------------------|#/3t2##/3t1#

A                                               D9
Volta pra explicar o que aconteceu. Tudo está confuso
A                                              D9
Um turbilhão passou em meu coração. Derrubando tudo
A                                          D9
Eu dormi com você e acordei em meio a tempestade
A                                                  D9
Você se foi e arrasou todo o meu amor em toda velocidade

A                             E
O vento forte bateu em mim. Desmoronou paredes
           Bm7                 F#m7
Do meu sentimento. Perdido no tempo
             Bm7        D9/G    E
Eu só sei chamar você a todo momento

             A                        E
Arrume os destroços do terremoto que passou
                    D9         E           A   E
Depois que você se foi a minha vida desmoronou
             A                        D9
Arrume os destroços do terremoto que passou
                   A                    E                A
Depois que você se foi restou pedra sobre pedra do nosso amor

#4t1#Solo: A  E  D9/G  E  A  D9/G  A
#4t2#E|---------------------------------------------------1-1-1/3-3-3-1----|
B|-1h3-3-3-3-1-1---1h3--1-1-1-------1---3/4-3-1-----------------------|
G|---------------3------------3-3-2---3----------3--------------------|
D|--------------------------------------------------------------------|
A|--------------------------------------------------------------------|
E|--------------------------------------------------------------------|#/4t2##/4t1#

A                             E
O vento forte bateu em mim. Desmoronou paredes
           Bm7                 F#m7
Do meu sentimento. Perdido no tempo
             Bm7        D9/G    E
Eu só sei chamar você a todo momento

             A                         E
Arrume os destroços do terremoto que passou
                   D9          E           A   E
Depois que você se foi a minha vida desmoronou
             A                         E
Arrume os destroços do terremoto que passou
                    A                      E
Depois que você se foi restou pedra sobre pedra
             A                         E
Arrume os destroços do terremoto que passou
                   D9         E           A   E
Depois que você se foi a minha vida desmoronou
             A                        E
Arrume os destroços do terremoto que passou
                    A                    E                A   D9  A
Depois que você se foi restou pedra sobre pedra do nosso amor
Composição: Euler CoelhoColaboração e revisão: Otavio Rezendeigor alencarCarlos BongiovaniRenan Favrettoe mais 3