busca

Casinha Verde

João Carreiro e Capataz

Tom: A
Intro:
E|---2--2---2/7---7---6---6-----------------------------|----7--6-------6-----------4--2----------|
B|---4--4---4/9---9---7---7----8---8---8---8---7---7---|---------9--7-----9--7--5---------5--4~---|
G|-----------------------------9---9---9---9---7---7----|-----------------------------------------|
D|-------------------------------------------------------|----------------------------------------|
A|-------------------------------------------------------|----------------------------------------|
E|-------------------------------------------------------|----------------------------------------|

E|-----------2/4---2---2---2/4--4--4--4---2--2---|----2--5--4-----4--7--6-----6---6/12--11~---10--9--8--7~---|
B|-----3--5----------------4/5--5--5--5---4--4---|-4-----------5-----------7---------------------------------|
G|--2---------------------------------------------|----------------------------------------------------------|
D|------------------------------------------------|----------------------------------------------------------|
A|------------------------------------------------|----------------------------------------------------------|
E|------------------------------------------------|----------------------------------------------------------|

           A                E
Tem muita gente que olha e não vê                                    
                       A
Pensa que a vida é só aparência
                        E
Onde eu moro é casinha modesta
                      A
É tão pequena minha residência
          D
Tem muita gente que de mim tem dó
    A                D
Imaginando que eu vivo sofrendo
        E             A
Meu companheiro é engano seu
        E                 A
Onde tem Deus é lá que eu to vivendo

Refrão:
        E         A              E
Casinha verde, pequenininha cheia de amor
            D   A          E
Meu mundo é uma beleza e o enfeite que mais
   A               D          E        A
Me encanta, são as crianças e a minha Tereza

         A                E
Sou jardineiro e com muito orgulho eu

desempenho
         A                             E
Minha profissão, e vira e mexe a vizinhança chama
                 A                  D
E eu atendo de bom coração, tudo que eu faço
                                 A        D
A Tereza tá junto, ela é feliz e eu demais com ela
       E           A         E
Todo domingo pra agradecer pode chover
                A
Que nós ta na capela.

Clipes

Cifra Club Pro

Aproveite o Cifra Club com benefícios exclusivos e sem anúncios
Cifra Club Pro
Aproveite o Cifra Club com benefícios exclusivos e sem anúncios