busca

Exagerado

João Carreiro e Capataz

Tom: G
Introdução: (G D C)
e|---------------|
B|---------------|
G|----------0----|
D|------0h2------|
A|----3--------2-|
E|---------------|

Verso:
G        D     C 
 Amor da minha vida 
G             D    C 
 Daqui até a eternidade 
Em                 D 
Nossos destinos foram traçados 
    C          Am Bm D 
Na maternidade 
G               D    C 
Paixão cruel, desenfreada 
G              D        C 
Te trago mil rosas roubadas 
Em                      D 
Pra desculpar minhas mentiras 
B 
Minhas mancadas 

Refrão:
       C 
Exagerado 
D 
Jogado aos teus pés 
        G       D    C 
Eu sou mesmo exagerado 
Em                 D     C Am Bm D 
Adoro um amor inventado
G                  D    C 
Eu nunca mais vou respirar 
G            D    C 
Se você não me notar 
Em                       D 
Eu posso até morrer de fome 
     C              Am Bm D 
Se você não me amar 

Verso:
Em                    Bm 
E por você eu largo tudo 
F                 D
Vou mendigar, roubar, matar 
Em                    Bm 
Até nas coisas mais banais 
F                  D     B7(4)
Pra mim é tudo ou nunca mais

Verso:
     C 
Exagerado 
  D 
Jogado aos teus pés 
        G       D    C 
Eu sou mesmo exagerado 
Em                 D     C Am Bm D 
Adoro um amor inventado 

Solo: (G D C G D C Em D C Am Bm D Em)
e|--------------------------------------------------------------12-|
B|-15---15---15---15---15------------------------------12/13-15----|
G|-14b--14b--14b--14b--14b--12~-------12-14b--14--12~--------------|
D|------------------------------12/14------------------------------|
A|-----------------------------------------------------------------|
E|-----------------------------------------------------------------|

e|----------------------------------------------------15--12----15--15-12-|
B|-15--13--12/13/12----------------------15----15--12--------12-----------|
G|------------------14--12--14b--14b--16----16----------------------------|
D|------------------------------------------------------------------------|
A|------------------------------------------------------------------------|
E|------------------------------------------------------------------------|

Verso:
Em                    Bm 
E por você eu largo tudo 
F              D 
Carreira, dinheiro, canudo 
Em                    Bm 
Até nas coisas mais banais 
F                  D     B7(4)
Pra mim é tudo ou nunca mais

Refrão final:
       C 
Exagerado 
D 
Jogado aos teus pés 
        G       D    C 
Eu sou mesmo exagerado 
Em                 D     C Am Bm D 
Adoro um amor inventado 
   G 
Jogado aos teus pés 
         D         C 
Com mil rosas roubadas 
      G 
Exagerado 
    Em                D 
Eu adoro um amor inventado 
G                C 
Jogado aos seus pés, bem melhor 
         G      D    C 
Eu sou mesmo exagerado 
Em                    D 
Adoro um amor inventado

Clipes

Cifra Club Pro

Aproveite o Cifra Club com benefícios exclusivos e sem anúncios
Cifra Club Pro
Aproveite o Cifra Club com benefícios exclusivos e sem anúncios