Am
123
X02210
B
234
X24442
B7(4)
34
X24252
Bm
234
X24432
C
123
X32010
D
123
XX0232
Em
12
022000
F
234
133211
G
123
320003
Tom: G
#1t1#Introdução: (G D C)
#1t2#e|---------------|
B|---------------|
G|----------0----|
D|------0h2------|
A|----3--------2-|
E|---------------|#/1t2##/1t1#

Verso:
G        D     C 
 Amor da minha vida 
G             D    C 
 Daqui até a eternidade 
Em                 D 
Nossos destinos foram traçados 
    C          Am Bm D 
Na maternidade 
G               D    C 
Paixão cruel, desenfreada 
G              D        C 
Te trago mil rosas roubadas 
Em                      D 
Pra desculpar minhas mentiras 
B 
Minhas mancadas 

Refrão:
       C 
Exagerado 
D 
Jogado aos teus pés 
        G       D    C 
Eu sou mesmo exagerado 
Em                 D     C Am Bm D 
Adoro um amor inventado
G                  D    C 
Eu nunca mais vou respirar 
G            D    C 
Se você não me notar 
Em                       D 
Eu posso até morrer de fome 
     C              Am Bm D 
Se você não me amar 

Verso:
Em                    Bm 
E por você eu largo tudo 
F                 D
Vou mendigar, roubar, matar 
Em                    Bm 
Até nas coisas mais banais 
F                  D     B7(4)
Pra mim é tudo ou nunca mais

Verso:
     C 
Exagerado 
  D 
Jogado aos teus pés 
        G       D    C 
Eu sou mesmo exagerado 
Em                 D     C Am Bm D 
Adoro um amor inventado 

#2t1#Solo: (G D C G D C Em D C Am Bm D Em)
#2t2#e|--------------------------------------------------------------12-|
B|-15---15---15---15---15------------------------------12/13-15----|
G|-14b--14b--14b--14b--14b--12~-------12-14b--14--12~--------------|
D|------------------------------12/14------------------------------|
A|-----------------------------------------------------------------|
E|-----------------------------------------------------------------|#/2t2##/2t1#

#3t1##3t2#e|----------------------------------------------------15--12----15--15-12-|
B|-15--13--12/13/12----------------------15----15--12--------12-----------|
G|------------------14--12--14b--14b--16----16----------------------------|
D|------------------------------------------------------------------------|
A|------------------------------------------------------------------------|
E|------------------------------------------------------------------------|#/3t2##/3t1#

Verso:
Em                    Bm 
E por você eu largo tudo 
F              D 
Carreira, dinheiro, canudo 
Em                    Bm 
Até nas coisas mais banais 
F                  D     B7(4)
Pra mim é tudo ou nunca mais

Refrão final:
       C 
Exagerado 
D 
Jogado aos teus pés 
        G       D    C 
Eu sou mesmo exagerado 
Em                 D     C Am Bm D 
Adoro um amor inventado 
   G 
Jogado aos teus pés 
         D         C 
Com mil rosas roubadas 
      G 
Exagerado 
    Em                D 
Eu adoro um amor inventado 
G                C 
Jogado aos seus pés, bem melhor 
         G      D    C 
Eu sou mesmo exagerado 
Em                    D 
Adoro um amor inventado
Composição: Cazuza / Ezequiel Neves / LeoniColaboração e revisão: Claudia Resende