Não Toca Em Minha Vitrola

João Carreiro e Capataz

A
123
X02220
A7
12
X02020
D
123
XX0232
D7
123
XX0212
G
123
320003
Tom: G
#1t1#Intro: D  A7  D  A7  D ( D  A7 ) (2x)
#1t2#D|--------------------------------------------------------------|
A|--9-7---------------------------------------------------------|
F|--8-7-8-7-8--9-10--1^0-1^0----1^0-1^0-----1^0-1^0-------------|
D|------9-7-9-10-11-----------2----------2----------2-0---2-2/4-|
A|------------------------------------------------------4-------|#/1t2##/1t1#

#2t1##2t2#D|--------------------------------------------------------------|
A|-------------------------------------0----0----0--------------|
F|--8---7-------------------------1/3----1---1/3----12-Harmonic-|
D|00--------9---7---9---10---11----------2----------12-Harmonic-|
A|00--0---0---0---0---0----0------------------------------------|#/2t2##/2t1#


D                                                                A7  A7 G A7
Esquecendo da cultura, "tão" mudando a postura só pra fugir do lugar
A7                                                               D
É o sertanejo moderno, brinco de argola e terno só canta comercial

#3t1##3t2#D|----2-2-2-2/4-4-
A|----4-4-4-4/5-5-#/3t2##/3t1#

D                                                      D7         G  A  G
Modinha sem fundamento deixando no esquecimento toda nossa tradição
                 A7                                           D
Não se fala em boiada, é só moda bagunçada e o assunto é traição

#4t1##4t2#F#|-0-1/3-0-5#/4t2##/4t1#
D||-0-2/4-0-5
A||-----5-0-5

G                   A7
 Pode até fazer sucesso, mas se tem brinco de argola

E se dança e rebola...

#5t1##5t2#D|-------0-1-2/7---
A|--0-2-4----------#/5t2##/5t1#

                       D
não toca em minha vitrola.
Introdução:
               D A7 D A7 D     (D A7 )2X PAGODE
#6t1##6t2#D|--------------------------------------------------------------|
A|--9-7---------------------------------------------------------|
F|--8-7-8-7-8--9-10--1^0-1^0----1^0-1^0-----1^0-1^0-------------|
D|------9-7-9-10-11-----------2----------2----------2-0---2-2/4-|
A|------------------------------------------------------4-------|#/6t2##/6t1#

#7t1##7t2#D|--------------------------------------------------------------|
A|-------------------------------------0----0----0--------------|
F|--8---7-------------------------1/3----1---1/3----12-Harmonic-|
D|00--------9---7---9---10---11----------2----------12-Harmonic-|
A|00--0---0---0---0---0----0------------------------------------|#/7t2##/7t1#


D                                                                A7  A7 G A7
Quem tem usar da viola pra levantar sua bola me dói no fundo da alma
A7                                                                D
Só pensando em ter lucro, o sertanejo fajuto não sabe o valor da palma

#8t1##8t2#D|----2-2-2-2/4-4-
A|----4-4-4-4/5-5-#/8t2##/8t1#

D                                                           D7         G   G D G
Nunca viu fã de verdade, que até chora de saudade quando escuta um modão
                    A7                                                 D
Caipira é sem esculacho, não empurra goela abaixo, escuta quem tem paixão

#9t1##9t2#F|-0-1/3-0-5-
D|-0-2/4-0-5-
A|-----5-0-5-#/9t2##/9t1#

G                  A7
Pode até fazer sucesso, mas se tem brinco de argola

E se dança e rebola...

#10t1##10t2#D|-------0-1-2/7---
A|-0-2-4----------#/10t2##/10t1#

                        D
 não toca em minha vitrola.
#11t1##11t2#D|--0-0-0-0-0-0-0-0--5-5-5-5-0-0-5--|
A|--0-0-0-0-0-0-0-0--5-5-5-5-0-0-5--|
F|--0-0-0-1-0-0-0-1--5-5-5-5-0-0-5--|
D|--0-0-0-2-0-0-0-2--5-5-5-5-0-0-5--|
A|--0-0-0-0-0-0-0-0--5-5-5-5-0-0-5--|#/11t2##/11t1#

#12t1#Moda boa faz sentido, não precisa de gemido pra demonstrar sentimento
#12t2#D|----------------------------------------------------------------------0-|
A|-----------5-5--------------------------------------------------------0-|
F|--5-5-5-5--5-5--6-6--6-6--5-5-3-1--0--0--0--0--0--0--0--3--3--1--1/3--0-|
D|--5-5-5-5-------7-7--7-7--5-5-4-2--0--0--0--0--0--0--0--4--4--2--2/4--0-|
A|----------------------------------------------------------------------0-|#/12t2##/12t1#

#13t1#Fã da moda verdadeira tem a coleção inteira, não só modinha do momento
#13t2#D|--------------------------------------------------------------------------5-|
A|--------------------------------------------------------------------------5-|
F|--0--0--0--0--1--1--0--0--0--0--0--0--1--1--0--0--0--0--0--0--------------5-|
D|--0--0--0--0--2--2--0--0--0--0--0--0--2--2--0--0--0--0--0--0--0--0--0--0--5-|
A|--------------------------------------------------------------0--0--0--2--5-|#/13t2##/13t1#

#14t1#É ignorância minha, mas igual galo de rinha meto a espora e firmo a asa
#14t2#D|-----------------------------------------------------------------------------|
A|--------------7--7-----------------------------------------------------------|
F|--7--7--7--7--7--7--8--8--8--8--7--7--7--7--3--3--3--3--1--1--1--1--0--------|
D|--7--7--7--7--------9--9--9--9--7--7--7--7--4--4--4--4--2--2--2--2--0--2--0--|
A|-----------------------------------------------------------------------4--0--|#/14t2##/14t1#

#15t1#Enquanto eu ''tivé'' vivo e Deus me der juízo,      isso não toca la em casa
#15t2#D|------------------------------------------------------------------------------|
A|--------------------7---------------------------------------------------------|
F|--7--7--7--7--7--8--7--7--5--5--5--5--5--7--8--7------------------------------|
D|--7--7--7--7--7--9-----7--5--5--5--5--5--7--9--7--0--0--0--0--0--0--4--4--4~--|
A|--------------------------------------------------0--0--0--0--0--0--5--5--5~--|#/15t2##/15t1#

#16t1##16t2#D|-4-4-2-2-5
A|-5-5-4-4-5#/16t2##/16t1#


G                  A7
Pode até fazer sucesso, mas se tem brinco de argola

E se dança e rebola,

#17t1##17t2#D|-------0-1-2/7---
A|-0-2-4----------#/17t2##/17t1#
                        D
não toca em minha vitrola.

#18t1#Pode até fazer sucesso, mas se tem brinco de argola
#18t2#D|-----------------------------------------------------|
A|-----------------------------------------------------|
F|--5--5--5--5--5--5--3--1--1--1--1--1--1--1--0--------|
D|--5--5--5--5--5--5--4--2--2--2--2--2--2--2--0--2--2--|
A|-----------------------------------------------4--4--|#/18t2##/18t1#
#19t1#E se dança e rebola, não toca em minha vitrola.
#19t2#D|-----------------------------------------------0-|
A|-----------------------------------------------0-|
F|--------------------------7--7--1--1--5--3--1--0-|
D|--2--2--2--2--2--2--0--2--7--7--2--2--5--4--2--0-|
A|--4--4--4--4--4--4--2--4-----------------------#/19t2##/19t1#

Composição: Colaboração e revisão: João Alves