busca

O Encardido Não Domina

João Carreiro e Capataz

Tom: E
Intro:
E|---9/10-10-10-10-10----9---9/10--0-0-0--|
B|--10/12-12-12-12-12---10--10/12--0-0-0--|
G|---------------------------------0-0-0--|
E|---------------------------------0-0-0--|
B|---------------------------------0-0-0--|

E|---9/10-10-10-10-10----9--7--0-0-0--|
B|--10/12-12-12-12-12---10--9--0-0-0--|
G|-----------------------------0-0-0--|
E|-----------------------------0-0-0--|
B|-----------------------------0-0-0--|
  E7
E|---9/10-10-10-10-10----9---9/12--10--10---9---9--7--7--5--5--4~--0--||
B|--10/12-12-12-12-12---10--10/14--12--12--10--10--9--9--7--7--5~--5--||
G|-----------------------------------------------------------------6--||
E|-----------------------------------------------------------------4--||
B|-----------------------------------------------------------------5--||

Riff 1:
  A
E|--7--5--4--2--0--0---0--||
B|--9--7--5--3--1--0---2--||
G|---------------------1--||
E|---------------------0--||
B|---------------------2--||

Riff 2:

E|-----0-----------0-------------0-----------0-------------0----------------||
B|--------------------------------------------------------------------------||
G|---------------------------------------------------------------------2/7--||
E|--------------2-------------------------2-------------------------2--2/7--||
B|--0-----2--4--------4--2----0-----2--4--------4--2----0-----2--4----------||


E7
A vida já me ralou, mas eu nunca esmoreci

Sei que Já o encardido querendo me possuir
 A                  E         A               E
Subindo nas minhas costas, pelejando pra eu cair
     F#             B                     E             (Riff 1)
Mas quem tem fé em Deus... Nunca pode desistir

 A
Pra poder vencer na vida
          B       E
Só com proteção divina
                     B7         (Riff 2)
Quem ta grudado com Deus
                  E
O encardido não domina.

(Intro)

E7
Não nasci em berço de ouro, sobrevivi pedindo esmola

Vi a droga, vi o crime, não joguei minha honra fora
 A              E             A             E
Eu venci honestamente só por Deus e Nossa Senhora
    F#                 B                      E         (Riff 1)
Que me deu força e talento... e essa sagrada viola.

 A
Pra poder vencer na vida
          B       E
Só com proteção divina
                     B7         (Riff 2)
Quem ta grudado com Deus
                  E
O encardido não domina.

(Intro)

E7
A vida me deu pancada, mas eu engoli o choro

Guentei a taca calado mesmo rancando meu couro
 A              E       A          E
Ao invés de revoltar remoí meus desaforos
   F#                B                               E          (Riff 1)
Respondo o mundo cantando... Quem tem Deus tem um tesouro.

 A
Pra poder vencer na vida
           B      E
Só com proteção divina
                     B7         (Riff 2)
Quem ta grudado com Deus
                  E
O encardido não domina.

Clipes

Cifra Club Pro

Aproveite o Cifra Club com benefícios exclusivos e sem anúncios
Cifra Club Pro
Aproveite o Cifra Club com benefícios exclusivos e sem anúncios