A
123
X02220
Am
123
X02210
Bm
234
X24432
C
123
X32010
D
123
XX0232
Em
12
022000
F
234
133211
F#m
34
244222
G
123
320003
Tom: G
intro 1º parte

#1t1##1t2#E|----------------------|
B|------------1---------|
G|-----0----------------|
D|-------0h2------------|
A|--3-------------------|
E|----------------------|#/1t2##/1t1#

intro 2º parte

#2t1##2t2#E|----------------------|
B|------0--1--0---------|
G|------0-----0---------|
D|---0--------0h2p0-----|
A|----------------------|
E|-3--------------------|#/2t2##/2t1#

intro 3º parte

#3t1##3t2#E|---------1------------|
B|-----0h1--------------|
G|---2------------------|
D|----------------------|
A|-0--------------------|
E|----------------------|#/3t2##/3t1#

intro 4º parte

#4t1##4t2#E|-------------------------|
B|---1p0-------------------|
G|-------0-0h2-0-----------|
D|----------------0h2-0----|
A|----------------------3--|
E|-3-----------------------|#/4t2##/4t1#



 C          G                   Em
No começo parecia brincadeira
                   G
Não sabíamos que era pra vida inteira
C                  G                Em
Os caminhos tomam rumos diferentes
                      G
Tinha que ser você o amor achou a gente
 F                    G
Mas um dia o rio encontra o mar
 Em                       Am   G
E eu tô aqui pra gente continuar
  C               G                Em
Hoje o correr do tempo fez sentido
                  G
Pra um querer que parecia proibido
 C                      G                   Em
Só que Deus já tinha escrito há muito tempo
                G
Que seríamos a folha e o vento

F                     G                 Em
E o que foi virou prefácio do que somos
                    Am          G
E é real o que pra nós era um sonho
C               G                 F
Chamam isso de destino eu não sei
                     G               C
Mas desde o inicio sempre te cuidei
                 G                 F
Chamam isso de amor eu também acho
               G             C
Mas seja como for me dá um abraço


   Solo:

#5t1##5t2#E|-------------------7h8p7-----------------------------------------------------------|
B|--5---6--8--6/8-----------8--5-----8/10---8---6--5---------------------------------|
G|--------------------------------7-------------------7--5--7p6---------6h7--9-------|
D|---------------------------------------------------------------9--7-----------7/12-|
A|-----------------------------------------------------------------------------------|
E|-----------------------------------------------------------------------------------|#/5t2##/5t1#


D               A          F#m
Hoje o correr do tempo fez sentido
                  A
Pra um querer que parecia proibido
 D                      A                F#m
Só que Deus já tinha escrito há muito tempo
                A
Que seríamos a folha e o vento

G                     A            F#m
E o que foi virou prefácio do que somos
                    Bm             A
E é real o que pra nós era um sonho
D               A             G
Chamam isso de destino eu não sei
                     A               D
Mas desde o inicio sempre te cuidei
               A               G
Chamam isso de amor eu também acho
               A             D
Mas seja como for me dá um abraço
Composição: Alex Ayusso / Cleber CaetanoColaboração e revisão: Darlan NascimentoCassiano MoreiraIgori Tremeadouglas santose mais 5