busca

Sonho de Caboclo

João Carreiro e Capataz

Tom: G
[Intro] D  G  D  G

E|----------------------------------------------------|
B|-12-10-8-7--10-8-7-5--8-7-5-3--3h5-3h5p3--3h5-3h5p3-|
G|-12-11-9-7--11-9-7-5--9-7-5-4-----------------------|
D|-------------------------------4h5-4------4h5-4-----|
A|----------------------------------------------------|
E|----------------------------------------------------|


E|----------------------------------------------------|
B|-0-1-3--7--5--3-----------------------------0-/12---|
G|-0-2-4--7--5--4-----------------------------0-/12---|
D|----------------------------------------------------|
A|----------------------------------------------------|
E|----------------------------------------------------|


        G
Fiz um poema com palavras tão bonitas
                                              D7
Caprichei bem na escrita e também fiz uma canção
           Am        Am/G            D/F#
Fui no jardim, colhi as flores mais belas
                                          G
Margaridas amarelas e a rosa branca em botão
            


Com muito gosto arrumei nossa casinha
                 G7                       C
Da sala até a cozinha e carpi todo o quintal
         C/G                    G
Rocei o pasto e concertei a porteira
                   D                        G  
Enfeitei a casa inteira como se fosse o natal

[Solo] D  G  D  G 

E|----------------------------------------------------|
B|-12-10-8-7--10-8-7-5--8-7-5-3--3h5-3h5p3--3h5-3h5p3-|
G|-12-11-9-7--11-9-7-5--9-7-5-4-----------------------|
D|-------------------------------4h5-4------4h5-4-----|
A|----------------------------------------------------|
E|----------------------------------------------------|


E|----------------------------------------------------|
B|-0-1-3--7--5--3-----------------------------0-/12---|
G|-0-2-4--7--5--4-----------------------------0-/12---|
D|----------------------------------------------------|
A|----------------------------------------------------|
E|----------------------------------------------------|

 
         G
Lá na varanda amarrei de novo a rede
                                         D7
Ajeitei bem na parede o quadro da Santa Ceia
            Am        Am/G       D/F#
No chão da sala tudo de terra batida
                                             G
Dei uma boa varrida e não ficou um grão de areia

          G
Na nossa cama pus a colcha de Piquet
                        G7                      C
Com as beiradas de crochê, que você fez tudo a mão
                                           G
Troquei as fronhas com capricho e muito esmero
                   D                           G     
As penas do travesseiro e palhas novas no colchão

[Solo] D  G  D  G 

E|----------------------------------------------------|
B|-12-10-8-7--10-8-7-5--8-7-5-3--3h5-3h5p3--3h5-3h5p3-|
G|-12-11-9-7--11-9-7-5--9-7-5-4-----------------------|
D|-------------------------------4h5-4------4h5-4-----|
A|----------------------------------------------------|
E|----------------------------------------------------|


E|----------------------------------------------------|
B|-0-1-3--7--5--3-----------------------------0-/12---|
G|-0-2-4--7--5--4-----------------------------0-/12---|
D|----------------------------------------------------|
A|----------------------------------------------------|
E|----------------------------------------------------|


          G
Chegou o dia que você ia voltar
                                      D
Eu cheguei até chorar de tanta felicidade
          Am             Am/G          D/F#
Levantei cedo, e me arrumei com muito zelo
                                        G
Reparti bem o cabelo igual  gente da cidade
        G
Botina nova que me apertava um pouco
                     G7                   C
Calça de brim rança toco,e bigode bem aparado
           C/G                   G
De lenço branco camisa preta de listra
                 D                     G     
Eu parecia um artista daqueles bem afamado

[Solo] D  G  D  G 

E|----------------------------------------------------|
B|-12-10-8-7--10-8-7-5--8-7-5-3--3h5-3h5p3--3h5-3h5p3-|
G|-12-11-9-7--11-9-7-5--9-7-5-4-----------------------|
D|-------------------------------4h5-4------4h5-4-----|
A|----------------------------------------------------|
E|----------------------------------------------------|


E|----------------------------------------------------|
B|-0-1-3--7--5--3-----------------------------0-/12---|
G|-0-2-4--7--5--4-----------------------------0-/12---|
D|----------------------------------------------------|
A|----------------------------------------------------|
E|----------------------------------------------------|


          G
E bem na hora que passava a jardineira
                                           D
Me deu uma tremedeira quando a porteira bateu
        Am            Am/G         D/F#
Sai correndo lá pras bandas da estrada
                D                      G
Pra ver a sua chegada e você não apareceu

        G
A jardineira foi sumindo no estradão
                    G7                      C
Levando a minha ilusão, e a tristeza que ficou
           C/G                      G
Foi só um sonho, sentei na cama chorando
                     D                       G   
Hoje está fazendo um ano que você me abandonou

[Final] D  G  D  G

Clipes

Cifra Club Pro

Aproveite o Cifra Club com benefícios exclusivos e sem anúncios
Cifra Club Pro
Aproveite o Cifra Club com benefícios exclusivos e sem anúncios