Um sonho com Tião Carreiro

João Carreiro e Capataz

A
123
X02220
B
234
X24442
B7
1234
X21202
E
123
022100
F#
234
244322
Tom: G
Intro: E (Afinação "cebolão" em E) = (B-E-G#-B-E) 

#1t1#Viola
#1t2#B|----------0----0---0---0----------0---0---0---0---0---0-------|-
E|--------0-----------------------------------------------------|-
G#|-----2-------2---3---5---5/6----5---3---2---3---5---6---6/8---|-
B|---0----------------------------------------------------------|-
E|-0------------------------------------------------------------|-
-#/1t2##/1t1#
#2t1##2t2#B|---0---0---0----0--0---0-----------0---0------------------0---|-
E|--------------------------------------------------------0-----|-
G#|-6---5---3---2---3---5---5/6----5----3----2----2------2------|-
B|----------------------------------------------------0---------|-
E|--------------------------------------------------0-----------|-#/2t2##/2t1#

E                        B7                          E
Numa estrada de chão vermelho com minha viola nos braços
                B7                          E   F#
Eu caminhava tocando a lua guiava meus passos
F#               B7                      (E B7 riff viola A)
Na curva da Gameleira eu me vi num embaraço
#3t1##3t2#B|---------------------------------
E|---------------------------------
G#|-------------------------------3-
B|---------2-----------------2-----
E|-0--2-4-----4-2-4---2-0--4-------#/3t2##/3t1#
A
Passava da Meia noite não me lembro bem a hora
   B7             E        B7             E    F#
O meu corpo arrepiou, coração pulou pra fora
F#                B                       (riff viola)
Um homem de capa preta pediu a minha viola
#4t1##4t2#B|------------------------------
E|-----7-9-7---7----------------
G#|-7-8-7-8-7-8-7-7^8^7----------
B|-7-9-------9---7^9^7----------
E|------------------------------#/4t2##/4t1#
A
O sujeito foi falando sem levantar a cartola
    B             E      B7                         E
Ou vence o meu desafio ouuuu,    levo sua alma embora

(riff viola) E

                    B7                        E (B E riff viola)
Saia fogo em seus dedos quando fazia o ponteado
#5t1##5t2#B|---9--------7--------11----------4--------|-
E|------------------------------------------|-
G#|-----8^0------7^0------10^0--------3^0---|-
B|------------------------------------------|-
E|-0--------0--------0---------0------------|-
-#/5t2##/5t1#
#6t1##6t2#B|---9--------2--------7----------0---------|-
E|------------------------------------------|-
G#|-----8^0------1^0-------7^0--------0-----|-
B|------------------------------------------|-
E|-0--------0--------0---------0------------|-#/6t2##/6t1#
                B                    E   F#
Era difícil vencer o desafio do diabo
F#                  B                     (riff viola B A B)
Do medo eu tirei força rezei e fui ajudado
#7t1##7t2#B|---------------------------------
E|---------------------------------
G#|------------------------------3-
B|---------2-----------------2-----
E|-0--2-4-----4-2-4---2-0--4-------#/7t2##/7t1#
A
Uma luz desceu do céu, o cão fugiu assustado
  B                E     B7                E (riff viola B E)
Quando no meio da luz ouviu,   esse ponteado
#8t1##8t2#B|-----0-11----0-09------0-2------0-5-----0-4------0-7-----0-2-----0-5----0-4-|-
E|-----0-12----0-10------0-4------0-7-----0-5------0-9-----0-4-----0-7----0-5-|-
G#|---------------------------------------------------------------------------|-
B|----------------------------------------------------------------------------|-
E|-0-------0---------0--------0--------0-------0--------0-------0-------0-----|-
-#/8t2##/8t1#
#9t1##9t2#B|-----0-7----0-09------0-11-------------|-
E|-----0-9----0-10------0-12-------------|-
G#|--------------------------------------|-
B|---------------------------------------|-
E|-0-------0-------0-------0-------------|-#/9t2##/9t1#


F#                           A
Pra te ajudar violeiro por Deus fui designado
  B             E               B           E
Aquele vulto falooouuuu,  pode ficar sossegado
F#                     B
Quando perguntei seu nome eu fiquei lisogiado
#10t1##10t2#B|---------------------------------
E|---------------------------------
G#|------------------------------3-
B|---------2-----------------2-----
E|-0--2-4-----4-2-4---2-0--4-------#/10t2##/10t1#
A      B               E        B                      E (riff)
Respondeu sou Tião Carreiro e vou estar sempre do seu lado

(base para declame) (E)
"A terra tremeu, e o chão abriu, e o homem de capa preta naquele instante sumiu,
Sumiu também naquele instante o maior dos violeiros e tudo não passou de um sonho
que eu tive com grande mestre Tião Carreiro"

F#                               A
Quem tem um anjo da guarda esta sempre protegido
         B7          E             B7
É a providencia divina que nos livra do perigo
F#                B7                        (riff)
Sempre salva o inocente da trapaça do inimigo
#11t1##11t2#B|------------------------------
E|-----7-9-7---7----------------
G#|-7-8-7-8-7-8-7-7^8^7---------
B|-7-9-------9---7^9^7----------
E|------------------------------#/11t2##/11t1#
A                   E       B7                       E    (riff B E B E)
É por isso que eu canto e conto o que aconteceu comigo
#12t1##12t2#B|---------------------------------------------------------------------------
E|---0------------------0------------------0-----------------0---------------
G#|--------------------------------------------------------------------------
B|-------2^0----2^0----------5^0---5^0---------4^0---4^0---------7^0---7^0---
E|-0---4------4------0-----7-----7-------0---5-----5------0----9-----9-------
-#/12t2##/12t1#
#13t1##13t2#B|----------------------------------------12----
E|---0------------------------------------12----
G#|----------------------------------------12---
B|---------11^0------9^0-----7^0-----5^0--12----
E|-0----12------0-10-----0-9-----0-7------12----#/13t2##/13t1#
Composição: Colaboração e revisão: Paulo Henriquebruno almeidaAugusto Resende