Chega de Saudade

João Gilberto

A7
12
X02020
A7(13-)
12
X0X021
A7(4/9)
1234
5X543X
A7(9-)
1234
5X532X
A7(9-/13)
1234
X05676
Am
123
X02210
Am6
1234
5X455X
Am7
12
X02010
1234
5X454X
B7(13)
1234
X2X244
B7(13-)
1234
7X788X
Bb7M
234
X13231
Bbm6
1234
6X566X
Bbm7
34
X13121
Bm6
1234
7X677X
Bm7
34
X24232
Bm7(5-)
1234
X2323X
234
X23131
C#m6
1234
X4X354
D6(9)
134
X54200
D6/F#
12
2X020X
D7M/F#
1234
2X0222
Dm7
34
X57565
E7
1
0X0010
E7(9)
1234
XX2132
Eb7(9/11+)
1234
XX1221
Em7
123
022030
Em7(11)
1234
X7X785
Em7(9)
1234
X7577X
F#7
34
242322
F#m6
1234
2X122X
F#m7
1234
2X222X
F#º
1234
2X121X
1234
XX3434
Fº(13-)
123
1X012X
G7M
1234
3X443X
Gm6
1234
3X233X
Gm7
1234
3X333X
Gm7(9)
1234
XX5365
Tom: G
[Intro] Gm7(9)  Dm7    Bbm6  Dm7  Eb7(9/11+)

Parte 1 de 2

#1t1#   Gm7(9)             Dm7
#1t2#E|-5-5---5---5-5---5------------------------|
B|-6-6---6---6-6---6--6---6---6---6-6---6---|
G|-3-3---3-x-3-3---3--5---5---5---5-5---5---|
D|--------------------7---7---7-x-7-7---7---|
A|----------------------5---5-----5---5-----|
E|-3---3-----3---3--------------------------|#/1t2##/1t1#

Parte 2 de 2

#2t1#             Bbm6     Dm7          Eb7(9/11+)
#2t2#E|-----------------------------------5-5----|
B|-6---6---7---6-6---6--6---6---6----6-6----|
G|-7---7---6---6-6---6--5---5---5----6-6----|
D|-6---6---7-x-5-5---5--7---7---7-x---------|
A|------------------------5---5------6-6----|
E|---7---7-----6---6------------------------|#/2t2##/2t1#

[Primeira Parte – Primeira Estrofe]

Parte 1 de 5

#3t1#   Dm7                
#3t2#E|------------------------------------------|
B|-6-6---6---6-6---6--6---6---6---6-6---6---|
G|-5-5---5---5-5---5--7---7---7---7-7---7---|
D|-7-7---7-x-7-7---7--6---6---6-x-6-6---6---|
A|-5---5-----5---5--------------------------|
E|----------------------7---7-----7---7-----|#/3t2##/3t1#

Parte 2 de 5

#4t1#   Bbm6                 Dm7
#4t2#E|------------------------------------------|
B|-6---6---6---6-6---6--6---6---6---6-6---6-|
G|-6---6---6---6-6---6--5---5---5---5-5---5-|
D|-5---5---5-x-5-5---5--7---7---7-x-7-7---7-|
A|------------------------5---5-----5---5---|
E|---6---6-----6---6------------------------|#/4t2##/4t1#

Parte 3 de 5

#5t1#   Dm7         Bm7(5-) E7
#5t2#E|------------------------------------------|
B|-6---6---6----3-3------0------------------|
G|-5---5---5----2-2------1------------------|
D|-7---7---7-x--3-3------0------------------|
A|---5---5------2---------------------------|
E|---------------------0--------------------|#/5t2##/5t1#

Parte 4 de 5

#6t1#   Am                  Bb7M
#6t2#E|------------------------------------------|
B|-1---1---1---1-1---1--3---3---3---3-3---3-|
G|-2---2---2---2-2---2--2---2---2---2-2---2-|
D|-2---2---2-x-2-2---2--3---3---3-x-3-3---3-|
A|---0---0-----0---0------1---1-----1---1---|
E|------------------------------------------|#/6t2##/6t1#

Parte 5 de 5

#7t1#   A7         A7(13-)
#7t2#E|------------1-1---1-----------------------|
B|-2---2-2-2--2-2---2-----------------------|
G|-0---0-0-0--0-0---0-----------------------|
D|-2---2-2-2--------------------------------|
A|---0---0----0---0-------------------------|
E|------------------------------------------|#/7t2##/7t1#

 Dm7                     Bbm6
Vai minha tristeza e diz a ela
        Dm7
Que sem ela não pode ser
         Bm7(5-)  E7      Am
Diz-lhe nu___________ma prece
            Bb7M
Que ela regresse
               A7            A7(13-)
Porque eu não posso mais sofrer

[Primeira Parte – Segunda Estrofe]

Parte 1 de 5

#8t1#   Dm7                
#8t2#E|------------------------------------------|
B|-6-6---6---6-6---6--6---6---6---6-6---6---|
G|-5-5---5---5-5---5--7---7---7---7-7---7---|
D|-7-7---7-x-7-7---7--6---6---6-x-6-6---6---|
A|-5---5-----5---5--------------------------|
E|----------------------7---7-----7---7-----|#/8t2##/8t1#

Parte 2 de 5

#9t1#   Bbm6                 Am6        
#9t2#E|------------------------------------------|
B|-6---6---6---6-6---6--5---5-5-5--4-4---4--|
G|-6---6---6---6-6---6--5---5-5-5--5-5---5--|
D|-5---5---5-x-5-5---5--4---4-4-4--4-4---4--|
A|------------------------------------------|
E|---6---6-----6---6------5---5----5---5----|#/9t2##/9t1#

Parte 3 de 5

#10t1#  Gm7         A7
#10t2#E|------------------------------------------|
B|-3---3-3-3--5-5---5-----------------------|
G|-3---3-3-3--6-6---6-----------------------|
D|-3---3-3-3--5-5---5-----------------------|
A|------------------------------------------|
E|---3---3----5---5-------------------------|#/10t2##/10t1#

Parte 4 de 5

#11t1#  Dm7                          Bbm6
#11t2#E|------------------------------------------|
B|-6-6---6---6-6---6---6-6---6----6-6---6---|
G|-5-5---5---5-5---5---7-7---7----6-6---6---|
D|-7-7---7-x-7-7---7-x-6-6---6-x--5-5---5-x-|
A|-5---5-----5---5--------------------------|
E|---------------------7---7------6---6-----|#/11t2##/11t1#

Parte 5 de 5

#12t1#   Dm7      Em7(11) A7(9-/13)
#12t2#E|-----------5-3----2-0---------------------|
B|-6-6---6---3-3----2-2---------------------|
G|-5-5---5---4-4----3-3---------------------|
D|-7-7---7----------------------------------|
A|-5---5------------0-----------------------|
E|-----------0------------------------------|#/12t2##/12t1#

  Dm7                   Bbm6
Chega de saudade, a realidade
          Am6         
É que sem ela não há paz
          Gm7     A7     Dm7
Não há beleza, é só tristeza
                        
E a melancolia que não sai de mim
     Bbm6            Dm7
Não sai de mim, não sai

Em7(11)  A7(9-/13)

[Refrão – Primeira Estrofe]

Parte 1 de 4

#13t1#   D7M/F#      F#m6     E7(9)
#13t2#E|----------------------2---2-2-2-2-2---2---|
B|--2---2---2--2-2---2--3---3-3-3-3-3---3---|
G|--2---2---2--2-2---2--1---1-1-1-1-1---1---|
D|--0---0---0--1-1---1----------------------|
A|------------------------------------------|
E|----2---2----2---2------0---0---0---0-----|#/13t2##/13t1#

Parte 2 de 4

#14t1#   Em7(9)     A7(9-)            D6/F#
#14t2#E|-2---2-2-2--------------------------------|
B|-3---3-3-3--2-2---2--0---0---0--0-0---0---|
G|-0---0-0-0--3-3---3--1---1---1--2-2---2---|
D|------------5-5---5--0---0---0--0-0---0---|
A|------------0---0-------------------------|
E|---0---0---------------1---1----2---2-----|#/14t2##/14t1#

Parte 3 de 4

#15t1#  D6/F#       Fº(13-)  Em7
#15t2#E|------------------------------------------|
B|-0---0-0-0--2-2---2--3---3-3-3-3-3---3----|
G|-2---2-2-2--1-1---1--0---0-0-0-0-0---0----|
D|-0---0-0-0--0-0---0--0---0-0-0-0-0---0----|
A|------------------------------------------|
E|---0---0----1---1------0---0---0---0------|#/15t2##/15t1#

Parte 4 de 4

#16t1#   E7                 Gm6        A7
#16t2#E|------------------------------------------|
B|-3---3-3-3-3-3---3--3---3---3--2-2---2----|
G|-1---1-1-1-1-1---1--3---3---3--0-0---0----|
D|-0---0-0-0-0-0---0--2---2---2--2-2---2----|
A|-------------------------------0---0------|
E|---0---0---0---0------3---3---------------|#/16t2##/16t1#

 D7M/F#  F#m6            E7(9)
Mas           se ela voltar
                         Em7(9)  A7(9-)
Se ela voltar que coisa linda
              D6/F#
Que coisa lou__ca
                  Fº(13-)    Em7
Pois há menos peixinhos a nadar no mar
              E7
Do que os beijinhos que eu darei
        Gm6  A7
Na sua bo___ca

[Refrão – Segunda Estrofe]

Parte 1 de 6

#17t1#   D7M/F#               E7(9)
#17t2#E|----------------------2---2---2---2-2---2-|
B|-2---2---2---2-2---2--3---3---3---3-3---3-|
G|-2---2---2---2-2---2--1---1---1-x-1-1---1-|
D|-0---0---0-x-0-0---0----------------------|
A|------------------------------------------|
E|---2---2-----2---2------0---0-----0---0---|#/17t2##/17t1#

Parte 2 de 6

#18t1#   F#7                  Bm7  Bbm7 Am7  
#18t2#E|------------------------------------------|
B|-2---2---2---2-2---2--3----2----1----4----|
G|-3---3---3---3-3---3--2----1----0----5----|
D|-2---2---2-x-2-2---2--4----3----2----4----|
A|------------------------2----1----0----0--|
E|---2---2-----2---2------------------------|#/18t2##/18t1#

Parte 3 de 6

#19t1#  G7M          Gm7      F#m7        B7(13)
#19t2#E|------------------------------------------|
B|-3---3---3---6-6---6--5---5---5---9-9---8-|
G|-4---4---4---3-3---3--2---2---2---8-8---8-|
D|-4---4---4-x-3-3---3--2---2---2-x-7-7---7-|
A|------------------------------------------|
E|---3---3-----3---3------2---2-----7---7---|#/19t2##/19t1#

Parte 4 de 6

#20t1#  Bm6          A7(4/9)  C#m6        B7(13-)   
#20t2#E|---------------2------4---4---4---3-3---3-|
B|-7---7---7---3-3---3--5---5---5---4-4---4-|
G|-7---7---7---4-4---4--3---3---3-x-2-2---2-|
D|-6---6---6-x-5-----5----------------------|
A|-------------0---0------4---4-----2---2---|
E|---7---7----------------------------------|#/20t2##/20t1#

Parte 5 de 6 (2x)

#21t1#   E7(9)      A7(4/9)  D7M/F#    F#º
#21t2#E|-2---2-2-2--------------------------------|
B|-3---3-3-3--3-3---3--2---0-----1---0------|
G|-1---1-1-1--4-4---4--2---2-----2---2------|
D|------------5-5---5--0---0-----1---1------|
A|------------------------------------------|
E|---0---0----5---5------2----2----2----2---|#/21t2##/21t1#

Parte 6 de 6

#22t1#   E7(9)      A7(4/9)   D6(9)
#22t2#E|-2---2-2-2------------5-------------------|
B|-3---3-3-3--3-3---3---5-------------------|
G|-1---1-1-1--4-4---4---4-------------------|
D|------------5-5---5---4-------------------|
A|----------------------5-------------------|
E|---0---0----5---5-------------------------|#/22t2##/22t1#

 D7M/F#           E7(9)      F#7
Dentro dos meus braços os abraços hão 
    Bm7    Bbm7      Am7
De ser milhões de abraços
   G7M           Gm7
Apertado assim, colado assim
   F#m7          B7(13)     Bm6
Calado assim, abraços e beijinhos
     A7(4/9)        C#m6
E carinhos sem ter fim
              B7(13-)        E7(9)
Que é pra acabar com esse negócio
      A7(4/9)      D7M/F#
De viver longe de mim

           F#º         E7(9)
Não quero mais esse negócio
      A7(4/9)    D7M/F#
De você viver assim
       F#º            E7(9)
Vamos deixar desse negócio
      A7(4/9)      D6(9)
De você viver sem mim
Composição: Antonio Carlos Jobim / Vinícius de MoraesColaboração e revisão: Useche InchauspeLeandro SandimJoão RosaJansen Grizentie mais 1
Videoaula CHEGA DE SAUDADE (aula de violão)