Bony Moronie

John Lennon

Tom: G
This is the riff we can here almost 
in the whole song :


e|------- ------- ------- ----|--
B|----------------------------|--
G|----------------------------|--
D|----------------------------|--
A|-------------------7---9----|--
E|-5---------7-/-9------------|--

e|----- ------- ------- -----|  
B|---------------------------|  
G|---------------------------|  
D|7---7----------------------|  
A|--------9----7---------7---|  
E|------------------9--------|  



e|------- ------- ------- ----|--
B|----------------------------|--
G|----------------------------|--
D|----------------------------|--
A|-------------------7---9----|--
E|-5---------7-/-9------------|--

e|----- ------- ------- -----| 
B|---------------------------| 
G|---------------------------| 
D|7---7----------------------| 
A|--------9----7---------7---| 
E|------------------9--------| 


There's a moment when there is the same, but higher. Instead of an A, begin with a D e|------- ------- ------- ----|-- B|----------------------------|-- G|----------------------------|-- D|----------------------------|-- A|------------------12--14----|-- E|-10--------12/14------------|-- e|----- ------ ------- -----| B|--------------------------| G|--------------------------| D|12--12--------------------| A|--------14--12-------12---| E|-----------------14-------| e|------- ------- ------- ----|-- B|----------------------------|-- G|----------------------------|-- D|----------------------------|-- A|------------------12--14----|-- E|-10--------12/14------------|-- e|----- ------ ------- -----| B|--------------------------| G|--------------------------| D|12--12--------------------| A|--------14--12-------12---| E|-----------------14-------| Use distortion to get the same sound… This my first tab, hope it will do. Hope it will help someone too.
Composição: Colaboração e revisão: Élison Duarte

Utilizamos cookies para personalizar sua experiência. Ao acessar o site, você concorda com a nossa Política de Privacidade.