C
123
X32010
C/E
123
032010
C/G
1234
332X1X
C7M
12
X3200X
Dm7
34
X57565
E
123
022100
E7
1234
022130
F
234
133211
F/C
234
X33211
G
123
320003
G7
34
353433
Tom: G
[Intro]

#1t1#   C/G         C7M F
#1t2#E|------------------------------------------|
B|-------------0--------------------0-------|
G|-0---0---0---0---2---2---2---2-3----------|
D|-2---2---2-----2-3---3---3----------------|
A|-3-3---3---3-3---3-3---3---3--------------|
E|-3---------------1------------------------|#/1t2##/1t1#

#2t1#   C/G         C7M F
#2t2#E|------------------------------------------|
B|-------------0--------------------0-------|
G|-0---0---0---0---2---2---2---2-3----------|
D|-2---2---2-----2-3---3---3----------------|
A|-3-3---3---3-3---3-3---3---3--------------|
E|-3---------------1------------------------|#/2t2##/2t1#

[Primeira Parte - Dedilhado da Intro]

C/G                 C7M   F
   Imagine there's no heaven
C/G              C7M  F
   It's easy if you try
C/G         C7M  F
   No hell below us
C/G          C7M    F
    Above us only sky

[Refrão]

F          C/E          Dm7   F/C
   Imagine all the people
 G            G7
Living for today a-hah

[Primeira Parte - Variação I]

C/G                 C7M     F
   Imagine there's no countries
C/G               C7M  F
   It isn't hard to do
C/G                C7M F
   Nothing to kill or die for
 C/G           C7M   F
   And no religion too

F          C/E          Dm7   F/C
   Imagine all the people
    G              G7
   Living life in peace yu-huh

[Segunda Parte]

F           G          C      C7M  E  E7
   You may say I'm a dreamer
F           G               C  C7M  E  E7
   But I'm not the only one
F              G          C      C7M  E  E7
   I hope someday you'll join us
F           G          C
   And the world will be as one

#3t1#[Passagem e variação do dedilhado da 1ª parte]
               C
#3t2#E|------------------------------------------|
B|-------------1---1---1---0----------------|
G|-------------0---0---0---0----------------|
D|-------------2-2---2---2---2--------------|
A|---3---3---3-3---3---3---3----------------|
E|-3---5---7--------------------------------|#/3t2##/3t1#

[Primeira Parte - Variação II]

C              C7M   F
   Imagine no possessions
C/G             C7M F
   I wonder if you can
C/G                  C7M    F
   No need for greed or hunger
C/G              C7M F
   A brotherhood of man

[Refrão]

F          C/E          Dm7   F/C
   Imagine all the people
  G              G7
Sharing all the world yu-huh

F           G          C      C7M  E  E7
   You may say I'm a dreamer
F           G               C  C7M  E  E7
   But I'm not the only one
F              G          C      C7M  E  E7
   I hope someday you'll join us
F           G          C
   And the world will live as one
Composição: John Lennon / Yoko OnoColaboração e revisão: RobertGetúlio Vasconcelosmagna graçanoNatalia Brunoe mais 12
Videoaula IMAGINE (aula de violão simplificada)