Louca de Saudade

Jorge & Mateus

A
123
X02220
Am7
12
X02010
C
123
X32010
D
123
XX0232
Dm
123
XX0231
Em
12
022000
Em7
123
022030
F#m7
1234
2X222X
F9
234
135211
F9/C
1234
X3X563
Fm
34
133111
Fm/C
34
X33111
G
123
320003
G/B
123
X20033
Gm7
1234
3X333X
Tom: G
Intro: C  Em7  F9  Fm
       C  Em7  F9/C  Fm

Parte 1 de 4


      C           Em7
E|-----x-----x------x-----x-------
B|---1-x-1-1-x----3-x-3-3-x-------
G|---0-x-0-0-x----0-x-0-0-x-------
D|-----x-----x------x-----x-------
A|-3---x-3---x------x-----x-------
E|-----x-----x--0---x-0---x-------


Parte 2 de 4
      F9            Fm
E|-------x-----x-------x---------
B|-1---1-x-1-1-x-1---1-x---1-1-1-
G|-0---0-x-0-0-x-1---1-x---1-1-1-
D|---3---x-3---x---3---x-3-----3-
A|-------x-----x-------x---------
E|-------x-----x-------x---------

E|-----------| 
B|-----------| 
G|0----------| 
D|-----------| 
A|-----------| 
E|-----------| 


Parte 3 de 4
      C               Em7
E|-----x---------x-------x-----x--
B|---1-x---1h3-1-x-3---3-x-3-3-x--
G|---0-x---------x-----0-x-0-0-x--
D|-----x---------x-------x-----x--
A|-3---x-3-------x-------x-----x--
E|-----x---------x---0---x-0---x--


Parte 4 de 4
      F9/C              Fm
E|-------x---------x--------------
B|-1---1-x---1---1-x-----1--------
G|-0---0-x---0h2-0-x---1----------
D|-----3-x---3---3-x-3------------
A|---3---x-3-------x--------------
E|-------x---------x--------------



Primeira Parte:

 F9/C                 G
Se uma canção me lembrar
          F9/C         C
Troque o CD, não ouça mais
 F9/C                  G
Se um perfume me recordar
           F9/C           C   G
Troque de marca, não use mais

Parte 1 de 4


      F9/C               G
E|-----x---------x--------x-----x-
B|---1-x---1---1-x------3-x-3-3-x-
G|---0-x---0h2-0-x-0----0-x-0-0-x-
D|---3-x---3---3-x-0----0-x-0-0-x-
A|-3---x-3-------x--------x-----x-
E|-----x---------x----3---x-3---x-

E|----------| 
B|----------| 
G|0---------| 
D|0---------| 
A|----------| 
E|----------| 


Parte 2 de 4
      F9/C              C
E|-----x---------x-------x-------
B|---1-x---1---1-x-----1-x-------
G|---0-x---0h2-0-x-0---0-x-------
D|---3-x---3---3-x-0---2-x---0h2-
A|-3---x-3-------x---3---x-3-3---
E|-----x---------x-------x-------

E|-----------| 
B|-----------| 
G|0----------| 
D|--0h2-0----| 
A|--3--------| 
E|-----------| 


Parte 3 de 4
      F9/C               G
E|-----x---------x--------x-----x-
B|---1-x---1---1-x------3-x-3-3-x-
G|---0-x---0h2-0-x-0----0-x-0-0-x-
D|---3-x---3---3-x-0----0-x-0-0-x-
A|-3---x-3-------x--------x-----x-
E|-----x---------x----3---x-3---x-

E|----------| 
B|----------| 
G|0---------| 
D|0---------| 
A|----------| 
E|----------| 


Parte 4 de 4
      F9/C              C       
E|-----x---------x-------x-------
B|---1-x---1---1-x-----1-x-------
G|---0-x---0h2-0-x-0---0-x-0-----
D|---3-x---3---3-x-0---2-x-0---0-
A|-3---x-3-------x---3---x-------
E|-----x---------x-------x---3---
  G
E|-----------| 
B|-----------| 
G|0----------| 
D|--0--------| 
A|-----------| 
E|-----------| 


Pré-refrão:

              F9/C                C
Já que me trocou por um outro alguém
 G      F9/C              G  Am7 
Substituir é o que te convém
 G/B


Parte 1 de 2


      F9/C              C       
E|-----x---------x-------x-------
B|---1-x---1---1-x-----1-x-----3-
G|---0-x---0h2-2-x-0---0-x-0---0-
D|---3-x---3---3-x-0---3-x-0---0-
A|-3---x-3-------x---3---x-------
E|-----x---------x-------x---3---
  G
E|x----------| 
B|x----------| 
G|x-0--------| 
D|x-0--------| 
A|x----------| 
E|x----------| 


Parte 2 de 2
      F9/C             G           
E|-----x---------x-------x-----x-
B|---1-x---1---1-x-----3-x-3-3-x-
G|---0-x---0h2-2-x-0---0-x-0-0-x-
D|---3-x---3---3-x-0---0-x-0-0-x-
A|-3---x-3-------x-------x-----x-
E|-----x---------x---3---x-3---x-
     Am7 G/B
E|-----------| 
B|0--1--3----| 
G|0--0--0----| 
D|0----------| 
A|---0--2-5\-| 
E|3----------| 


Refrão:

                  C               
Mas quando o coração não me 
Em7
enxergar
               F9/C
Vai te deixar louca de saudade
 Fm/C
Louca de saudade
       C              Em7
O coração vai me desejar
             F9/C
E te deixar louca de saudade
 Fm/C
Louca de saudade
          Dm
Eu quero ver então
    G
Se vai poder trocar de coração

Parte 1 de 3 C Em7 E|-----x-----x--------x-----x----- B|---1-x-1-1-x------3-x-3-3-x----- G|---0-x-0-0-x-0----0-x-0-0-x-0--- D|---2-x-2-2-x-0----0-x-0-0-x-0--- A|-3---x-3---x--------x-----x----- E|-----x-----x----0---x-0---x----- Parte 2 de 3 F9/C Fm/C E|-----x-----x--------x-----x----- B|---1-x-1-1-x------1-x-1-1-x----- G|---0-x-0-0-x-0----1-x-1-1-x-0--- D|---3-x-3-3-x-0----3-x-3-3-x-0--- A|-3---x-3---x----3---x-3---x----- E|-----x-----x--------x-----x----- Parte 1 de 3 C Em7 E|-----x-----x--------x-----x----- B|---1-x-1-1-x------3-x-3-3-x----- G|---0-x-0-0-x-0----0-x-0-0-x-0--- D|---2-x-2-2-x-0----0-x-0-0-x-0--- A|-3---x-3---x--------x-----x----- E|-----x-----x----0---x-0---x----- Parte 2 de 3 F9/C Fm/C E|-----x-----x--------x-----x----- B|---1-x-1-1-x------1-x-1-1-x----- G|---0-x-0-0-x-0----1-x-1-1-x-0--- D|---3-x-3-3-x-0----3-x-3-3-x-0--- A|-3---x-3---x----3---x-3---x----- E|-----x-----x--------x-----x----- Parte 3 de 3 Dm G E|---1-x---1-1-x--3--------------- B|---3-x---3-3-x--3--------------- G|---2-x---2-2-x--0--------------- D|-0---x-0-----x--0--------------- A|-----x-------x--2--------------- E|-----x-------x--3--------------- Base Solo: C Em7 F9/C Fm/C Parte 1 de 2 C Em7 E|-----x-----x--------x-----x----- B|---1-x-1-1-x------3-x-3-3-x----- G|---0-x-0-0-x-0----0-x-0-0-x-0--- D|---2-x-2-2-x-0----0-x-0-0-x-0--- A|-3---x-3---x--------x-----x----- E|-----x-----x----0---x-0---x----- Parte 2 de 2 F9/C Fm/C E|-----x-----x-------------------- B|---1-x-1-1-x----1--------------- G|---0-x-0-0-x-0--1--------------- D|---3-x-3-3-x-0--3--------------- A|-3---x-3---x----3--------------- E|-----x-----x-------------------- Segunda Parte: F9/C G Se algum lugar me lembrar F9/C C Troque de rota, não passe lá F9/C G Se um filme me recordar F9/C C G Troque o canal, é só desligar Parte 1 de 4 F9/C G E|-----x-----x--------x-----x----- B|---1-x-1-1-x------3-x-3-3-x----- G|---0-x-0-0-x-0----0-x-0-0-x-0--- D|---3-x-3-3-x-0----0-x-0-0-x-0--- A|-3---x-3---x--------x-----x----- E|-----x-----x----3---x-3---x----- Parte 2 de 4 F9/C C E|-----x-----x--------x-----x----- B|---1-x-1-1-x------1-x-1-1-x----- G|---0-x-0-0-x-0----0-x-0-0-x-0--- D|---3-x-3-3-x-0----2-x-2-2-x-0--- A|-3---x-3---x----3---x-3---x----- E|-----x-----x--------x-----x----- Parte 3 de 4 F9/C G E|-----x-----x--------x-----x----- B|---1-x-1-1-x------3-x-3-3-x----- G|---0-x-0-0-x-0----0-x-0-0-x-0--- D|---3-x-3-3-x-0----0-x-0-0-x-0--- A|-3---x-3---x--------x-----x----- E|-----x-----x----3---x-3---x----- Parte 4 de 4 F9/C C G E|-----x-----x--------x-------x--- B|---1-x-1-1-x------1-x-----3-x--- G|---0-x-0-0-x-0----0-x-0---0-x-0- D|---3-x-3-3-x-0----2-x-0---0-x-0- A|-3---x-3---x----3---x-------x--- E|-----x-----x--------x---3---x--- Pré-refrão: F9/C C Já que me trocou por um outro alguém G F9/C G Am7 Substituir é o que te convém G/B Refrão: C Mas quando o coração não me Em7 enxergar F9/C Vai te deixar louca de saudade Fm/C Louca de saudade C Em7 O coração vai me desejar F9/C E te deixar louca de saudade Fm/C Louca de saudade Dm Eu quero ver então G Se vai poder trocar Dm Eu quero ver então G C A Se vai poder trocar de coração Refrão Modulação: D Mas quando o coração não me F#m7 enxergar G Vai te deixar louca de saudade Gm7 Louca de saudade D F#m7 O coração vai me desejar G E te deixar louca de saudade Gm7 Louca de saudade Em Eu quero ver então A Se vai poder trocar Em Eu quero ver então A Se vai poder trocar de coração Parte 1 de 5 C Em7 E|-----x-----x--------x-----x----- B|---1-x-1-1-x------3-x-3-3-x----- G|---0-x-0-0-x-0----0-x-0-0-x-0--- D|---2-x-2-2-x-0----0-x-0-0-x-0--- A|-3---x-3---x--------x-----x----- E|-----x-----x----0---x-0---x----- Parte 2 de 5 F9/C Fm/C E|-----x-----x--------x-----x----- B|---1-x-1-1-x------1-x-1-1-x----- G|---0-x-0-0-x-0----1-x-1-1-x-0--- D|---3-x-3-3-x-0----3-x-3-3-x-0--- A|-3---x-3---x----3---x-3---x----- E|-----x-----x--------x-----x----- Parte 1 de 5 C Em7 E|-----x-----x--------x-----x----- B|---1-x-1-1-x------3-x-3-3-x----- G|---0-x-0-0-x-0----0-x-0-0-x-0--- D|---2-x-2-2-x-0----0-x-0-0-x-0--- A|-3---x-3---x--------x-----x----- E|-----x-----x----0---x-0---x----- Parte 2 de 5 F9/C Fm/C E|-----x-----x--------x-----x----- B|---1-x-1-1-x------1-x-1-1-x----- G|---0-x-0-0-x-0----1-x-1-1-x-0--- D|---3-x-3-3-x-0----3-x-3-3-x-0--- A|-3---x-3---x----3---x-3---x----- E|-----x-----x--------x-----x----- Parte 3 de 5 Dm G E|---1-x---1-1-x----3------------- B|---3-x---3-3-x----3------------- G|---2-x---2-2-x----0------------- D|-0---x-0-----x----0------------- A|-----x-------x----2------------- E|-----x-------x--3--------------- Parte 4 de 5 Dm G Am7 G/B E|---1-x---1-1-x------------------ B|---3-x---3-3-x--0--3--3--------- G|---2-x---2-2-x--0--0--0--------- D|-0---x-0-----x--0--------------- A|-----x-------x-----0--2--5------ E|-----x-------x--3--------------- Parte 5 de 5 C A E|-----x-----x-------------------- B|---1-x-1-1-x--2--2-2-2-2-2-2-2-- G|---0-x-0-0-x--2--2-2-2-2-2-2-2-- D|---2-x-2-2-x--2--2-2-2-2-2-2-2-- A|-3---x-3---x--0--0-0-0-0-0-0-0-- E|-----x-----x-------------------- ( D F#m7 G Gm7 D ) Solo Introdução: Parte 1 de 3 E|-------------------------------- B|-------------------------------- G|-5-5-5--5/7-7--9-7/9~--9h10-9-9- D|-------------------------------- A|-------------------------------- E|-------------------------------- E|--------------------| B|--------------------| G|7-7~----------------| D|--------------------| A|--------------------| E|--------------------| Parte 2 de 3 E|----------------------------- B|-------------------------8-8- G|-5-5-7-5-7/10-9-9-7-7-5------ D|----------------------------- A|----------------------------- E|----------------------------- E|-----------------------| B|8h9-8-6----------------| G|--------5-7/9~---------| D|-----------------------| A|-----------------------| E|-----------------------| Parte 3 de 3 E|------------------------------- B|-8----------------------------- G|---9\7-5---5h7~--7/9-5~--7---5- D|---------7-----------------7--- A|------------------------------- E|------------------------------- E|---------------------| B|---------------------| G|---------------------| D|5/6~-----------------| A|---------------------| E|---------------------| Solo Refrão: Parte 1 de 2 E|-------------------------------- B|-------------------------------- G|-5-5-5--5/7-7--9-7/9~--9h10-9-9- D|-------------------------------- A|-------------------------------- E|-------------------------------- E|--------------------| B|--------------------| G|7-7~----------------| D|--------------------| A|--------------------| E|--------------------| Parte 2 de 2 E|----------------------------- B|-------------------------8-8- G|-5-5-7-5-7/10-9-9-7-7-5------ D|----------------------------- A|----------------------------- E|----------------------------- E|-----------------------| B|8h9-8-6~---------------| G|-----------------------| D|-----------------------| A|-----------------------| E|-----------------------| Solo Modulação: E|-------------------------------- B|---------5---------------------- G|-5-5-5-7---6-7-9---------------- D|-------------------------------- A|-------------------------------- E|-------------------------------- Solo Final: Parte 1 de 3 E|------------------------------ B|------------------------------ G|-7-7-7-9-9-11-9h11~--11/12-11- D|------------------------------ A|------------------------------ E|------------------------------ E|----------------------| B|----------------------| G|11-9-9~---------------| D|----------------------| A|----------------------| E|----------------------| Parte 2 de 3 E|-------------------------------- B|-------------------------------- G|-7-7-9-7-9/12-11-11-9-9-7------- D|-------------------------------- A|-------------------------------- E|-------------------------------- Parte 3 de 3 E|-------------------------------- B|-10-10-10h11~-10~-~8~--7h8p7\5~- G|-------------------------------- D|-------------------------------- A|-------------------------------- E|-------------------------------- E|--------------------| B|-2-3----------------| G|-----2/4~-----------| D|--------------------| A|--------------------| E|--------------------|
Composição: Adriann / Mauricio MelloColaboração e revisão: Leandro SandimDJ FUNKMicael Silvadeivid diase mais 17
Videoaula Louca de Saudade (aula de violão completa)

Utilizamos cookies para personalizar sua experiência. Ao acessar o site, você concorda com a nossa Política de Privacidade.