Louca de Saudade

Jorge & Mateus

A
123
X02220
Am7
12
X02010
C
123
X32010
D
123
XX0232
Dm
123
XX0231
Em
12
022000
Em7
123
022030
F#m7
1234
2X222X
F9
234
135211
F9/C
1234
X3X563
Fm
34
133111
Fm/C
34
X33111
G
123
320003
G/B
123
X20033
Gm7
1234
3X333X
Tom: G
Intro: C  Em7  F9  Fm
       C  Em7  F9/C  Fm

Parte 1 de 4

#1t1#      C           Em7
#1t2#E|-----x-----x------x-----x-----------------|
B|---1-x-1-1-x----3-x-3-3-x-----------------|
G|---0-x-0-0-x----0-x-0-0-x-----------------|
D|-----x-----x------x-----x-----------------|
A|-3---x-3---x------x-----x-----------------|
E|-----x-----x--0---x-0---x-----------------|#/1t2##/1t1#
#2t1#Parte 2 de 4
      F9            Fm
#2t2#E|-------x-----x-------x--------------------|
B|-1---1-x-1-1-x-1---1-x---1-1-1------------|
G|-0---0-x-0-0-x-1---1-x---1-1-1-0----------|
D|---3---x-3---x---3---x-3-----3------------|
A|-------x-----x-------x--------------------|
E|-------x-----x-------x--------------------|#/2t2##/2t1#
#3t1#Parte 3 de 4
      C               Em7
#3t2#E|-----x---------x-------x-----x------------|
B|---1-x---1h3-1-x-3---3-x-3-3-x------------|
G|---0-x---------x-----0-x-0-0-x------------|
D|-----x---------x-------x-----x------------|
A|-3---x-3-------x-------x-----x------------|
E|-----x---------x---0---x-0---x------------|#/3t2##/3t1#
#4t1#Parte 4 de 4
      F9/C              Fm
#4t2#E|-------x---------x------------------------|
B|-1---1-x---1---1-x-----1------------------|
G|-0---0-x---0h2-0-x---1--------------------|
D|-----3-x---3---3-x-3----------------------|
A|---3---x-3-------x------------------------|
E|-------x---------x------------------------|#/4t2##/4t1#


Primeira Parte:

 F9/C                 G
Se uma canção me lembrar
          F9/C         C
Troque o CD, não ouça mais
 F9/C                  G
Se um perfume me recordar
           F9/C           C   G
Troque de marca, não use mais

Parte 1 de 4

#5t1#      F9/C               G
#5t2#E|-----x---------x--------x-----x-----------|
B|---1-x---1---1-x------3-x-3-3-x-----------|
G|---0-x---0h2-0-x-0----0-x-0-0-x-0---------|
D|---3-x---3---3-x-0----0-x-0-0-x-0---------|
A|-3---x-3-------x--------x-----x-----------|
E|-----x---------x----3---x-3---x-----------|#/5t2##/5t1#
#6t1#Parte 2 de 4
      F9/C              C
#6t2#E|-----x---------x-------x------------------|
B|---1-x---1---1-x-----1-x------------------|
G|---0-x---0h2-0-x-0---0-x-------0----------|
D|---3-x---3---3-x-0---2-x---0h2---0h2-0----|
A|-3---x-3-------x---3---x-3-3-----3--------|
E|-----x---------x-------x------------------|#/6t2##/6t1#
#7t1#Parte 3 de 4
      F9/C               G
#7t2#E|-----x---------x--------x-----x-----------|
B|---1-x---1---1-x------3-x-3-3-x-----------|
G|---0-x---0h2-0-x-0----0-x-0-0-x-0---------|
D|---3-x---3---3-x-0----0-x-0-0-x-0---------|
A|-3---x-3-------x--------x-----x-----------|
E|-----x---------x----3---x-3---x-----------|#/7t2##/7t1#
#8t1#Parte 4 de 4
      F9/C              C       G
#8t2#E|-----x---------x-------x------------------|
B|---1-x---1---1-x-----1-x------------------|
G|---0-x---0h2-0-x-0---0-x-0-----0----------|
D|---3-x---3---3-x-0---2-x-0---0---0--------|
A|-3---x-3-------x---3---x------------------|
E|-----x---------x-------x---3--------------|#/8t2##/8t1#

Pré-refrão:

              F9/C                C
Já que me trocou por um outro alguém
 G      F9/C              G  Am7  G/B
Substituir é o que te convém

Parte 1 de 2

#9t1#      F9/C              C       G
#9t2#E|-----x---------x-------x-------x----------|
B|---1-x---1---1-x-----1-x-----3-x----------|
G|---0-x---0h2-2-x-0---0-x-0---0-x-0--------|
D|---3-x---3---3-x-0---3-x-0---0-x-0--------|
A|-3---x-3-------x---3---x-------x----------|
E|-----x---------x-------x---3---x----------|#/9t2##/9t1#
#10t1#Parte 2 de 2
      F9/C             G              Am7 G/B
#10t2#E|-----x---------x-------x-----x------------|
B|---1-x---1---1-x-----3-x-3-3-x-0--1--3----|
G|---0-x---0h2-2-x-0---0-x-0-0-x-0--0--0----|
D|---3-x---3---3-x-0---0-x-0-0-x-0----------|
A|-3---x-3-------x-------x-----x----0--2-5\-|
E|-----x---------x---3---x-3---x-3----------|#/10t2##/10t1#

Refrão:

                  C               Em7
Mas quando o coração não me enxergar
               F9/C
Vai te deixar louca de saudade
 Fm/C
Louca de saudade
       C              Em7
O coração vai me desejar
             F9/C
E te deixar louca de saudade
 Fm/C
Louca de saudade
          Dm
Eu quero ver então
    G
Se vai poder trocar de coração

 Parte 1 de 3

#11t1#      C             Em7
#11t2#E|-----x-----x--------x-----x---------------|
B|---1-x-1-1-x------3-x-3-3-x---------------|
G|---0-x-0-0-x-0----0-x-0-0-x-0-------------|
D|---2-x-2-2-x-0----0-x-0-0-x-0-------------|
A|-3---x-3---x--------x-----x---------------|
E|-----x-----x----0---x-0---x---------------|#/11t2##/11t1#
#12t1#Parte 2 de 3
     F9/C           Fm/C
#12t2#E|-----x-----x--------x-----x---------------|
B|---1-x-1-1-x------1-x-1-1-x---------------|
G|---0-x-0-0-x-0----1-x-1-1-x-0-------------|
D|---3-x-3-3-x-0----3-x-3-3-x-0-------------|
A|-3---x-3---x----3---x-3---x---------------|
E|-----x-----x--------x-----x---------------|#/12t2##/12t1#
#13t1#Parte 1 de 3
      C             Em7
#13t2#E|-----x-----x--------x-----x---------------|
B|---1-x-1-1-x------3-x-3-3-x---------------|
G|---0-x-0-0-x-0----0-x-0-0-x-0-------------|
D|---2-x-2-2-x-0----0-x-0-0-x-0-------------|
A|-3---x-3---x--------x-----x---------------|
E|-----x-----x----0---x-0---x---------------|#/13t2##/13t1#
#14t1#Parte 2 de 3
     F9/C           Fm/C
#14t2#E|-----x-----x--------x-----x---------------|
B|---1-x-1-1-x------1-x-1-1-x---------------|
G|---0-x-0-0-x-0----1-x-1-1-x-0-------------|
D|---3-x-3-3-x-0----3-x-3-3-x-0-------------|
A|-3---x-3---x----3---x-3---x---------------|
E|-----x-----x--------x-----x---------------|#/14t2##/14t1#
#15t1#Parte 3 de 3
      Dm             G
#15t2#E|---1-x---1-1-x--3-------------------------|
B|---3-x---3-3-x--3-------------------------|
G|---2-x---2-2-x--0-------------------------|
D|-0---x-0-----x--0-------------------------|
A|-----x-------x--2-------------------------|
E|-----x-------x--3-------------------------|#/15t2##/15t1#

Base Solo: C  Em7  F9/C  Fm/C

#16t1#Parte 1 de 2
      C             Em7
#16t2#E|-----x-----x--------x-----x---------------|
B|---1-x-1-1-x------3-x-3-3-x---------------|
G|---0-x-0-0-x-0----0-x-0-0-x-0-------------|
D|---2-x-2-2-x-0----0-x-0-0-x-0-------------|
A|-3---x-3---x--------x-----x---------------|
E|-----x-----x----0---x-0---x---------------|#/16t2##/16t1#
#17t1#Parte 2 de 2
     F9/C           Fm/C
#17t2#E|-----x-----x------------------------------|
B|---1-x-1-1-x----1-------------------------|
G|---0-x-0-0-x-0--1-------------------------|
D|---3-x-3-3-x-0--3-------------------------|
A|-3---x-3---x----3-------------------------|
E|-----x-----x------------------------------|#/17t2##/17t1#

Segunda Parte:

 F9/C                  G
Se algum lugar me lembrar
             F9/C          C
Troque de rota, não passe lá
 F9/C                G
Se um filme me recordar
            F9/C           C  G
Troque o canal, é só desligar

Parte 1 de 4

#18t1#      F9/C           G
#18t2#E|-----x-----x--------x-----x---------------|
B|---1-x-1-1-x------3-x-3-3-x---------------|
G|---0-x-0-0-x-0----0-x-0-0-x-0-------------|
D|---3-x-3-3-x-0----0-x-0-0-x-0-------------|
A|-3---x-3---x--------x-----x---------------|
E|-----x-----x----3---x-3---x---------------|#/18t2##/18t1#
#19t1#Parte 2 de 4
      F9/C           C
#19t2#E|-----x-----x--------x-----x---------------|
B|---1-x-1-1-x------1-x-1-1-x---------------|
G|---0-x-0-0-x-0----0-x-0-0-x-0-------------|
D|---3-x-3-3-x-0----2-x-2-2-x-0-------------|
A|-3---x-3---x----3---x-3---x---------------|
E|-----x-----x--------x-----x---------------|#/19t2##/19t1#
#20t1#Parte 3 de 4
      F9/C           G
#20t2#E|-----x-----x--------x-----x---------------|
B|---1-x-1-1-x------3-x-3-3-x---------------|
G|---0-x-0-0-x-0----0-x-0-0-x-0-------------|
D|---3-x-3-3-x-0----0-x-0-0-x-0-------------|
A|-3---x-3---x--------x-----x---------------|
E|-----x-----x----3---x-3---x---------------|#/20t2##/20t1#
#21t1#Parte 4 de 4
      F9/C           C       G
#21t2#E|-----x-----x--------x-------x-------------|
B|---1-x-1-1-x------1-x-----3-x-------------|
G|---0-x-0-0-x-0----0-x-0---0-x-0-----------|
D|---3-x-3-3-x-0----2-x-0---0-x-0-----------|
A|-3---x-3---x----3---x-------x-------------|
E|-----x-----x--------x---3---x-------------|#/21t2##/21t1#

Pré-refrão:

              F9/C                C
Já que me trocou por um outro alguém
 G      F9/C              G  Am7  G/B
Substituir é o que te convém

Refrão:

                  C               Em7
Mas quando o coração não me enxergar
               F9/C
Vai te deixar louca de saudade
 Fm/C
Louca de saudade
       C              Em7
O coração vai me desejar
             F9/C
E te deixar louca de saudade
 Fm/C
Louca de saudade
          Dm
Eu quero ver então
    G
Se vai poder trocar
          Dm
Eu quero ver então
    G                       C  A
Se vai poder trocar de coração

Refrão Modulação:

                  D               F#m7
Mas quando o coração não me enxergar
               G
Vai te deixar louca de saudade
 Gm7
Louca de saudade
       D              F#m7
O coração vai me desejar
             G
E te deixar louca de saudade
 Gm7
Louca de saudade
          Em
Eu quero ver então
    A
Se vai poder trocar
          Em
Eu quero ver então
    A
Se vai poder trocar de coração
Parte 1 de 5

#22t1#      C             Em7
#22t2#E|-----x-----x--------x-----x---------------|
B|---1-x-1-1-x------3-x-3-3-x---------------|
G|---0-x-0-0-x-0----0-x-0-0-x-0-------------|
D|---2-x-2-2-x-0----0-x-0-0-x-0-------------|
A|-3---x-3---x--------x-----x---------------|
E|-----x-----x----0---x-0---x---------------|#/22t2##/22t1#
#23t1#Parte 2 de 5
     F9/C           Fm/C
#23t2#E|-----x-----x--------x-----x---------------|
B|---1-x-1-1-x------1-x-1-1-x---------------|
G|---0-x-0-0-x-0----1-x-1-1-x-0-------------|
D|---3-x-3-3-x-0----3-x-3-3-x-0-------------|
A|-3---x-3---x----3---x-3---x---------------|
E|-----x-----x--------x-----x---------------|#/23t2##/23t1#
#24t1#Parte 1 de 5
      C             Em7
#24t2#E|-----x-----x--------x-----x---------------|
B|---1-x-1-1-x------3-x-3-3-x---------------|
G|---0-x-0-0-x-0----0-x-0-0-x-0-------------|
D|---2-x-2-2-x-0----0-x-0-0-x-0-------------|
A|-3---x-3---x--------x-----x---------------|
E|-----x-----x----0---x-0---x---------------|#/24t2##/24t1#
#25t1#Parte 2 de 5
     F9/C           Fm/C
#25t2#E|-----x-----x--------x-----x---------------|
B|---1-x-1-1-x------1-x-1-1-x---------------|
G|---0-x-0-0-x-0----1-x-1-1-x-0-------------|
D|---3-x-3-3-x-0----3-x-3-3-x-0-------------|
A|-3---x-3---x----3---x-3---x---------------|
E|-----x-----x--------x-----x---------------|#/25t2##/25t1#
#26t1#Parte 3 de 5
      Dm             G
#26t2#E|---1-x---1-1-x----3-----------------------|
B|---3-x---3-3-x----3-----------------------|
G|---2-x---2-2-x----0-----------------------|
D|-0---x-0-----x----0-----------------------|
A|-----x-------x----2-----------------------|
E|-----x-------x--3-------------------------|#/26t2##/26t1#
#27t1#Parte 4 de 5
      Dm             G Am7 G/B
#27t2#E|---1-x---1-1-x----------------------------|
B|---3-x---3-3-x--0--3--3-------------------|
G|---2-x---2-2-x--0--0--0-------------------|
D|-0---x-0-----x--0-------------------------|
A|-----x-------x-----0--2--5----------------|
E|-----x-------x--3-------------------------|#/27t2##/27t1#
#28t1#Parte 5 de 5
     C             A
#28t2#E|-----x-----x------------------------------|
B|---1-x-1-1-x--2--2-2-2-2-2-2-2------------|
G|---0-x-0-0-x--2--2-2-2-2-2-2-2------------|
D|---2-x-2-2-x--2--2-2-2-2-2-2-2------------|
A|-3---x-3---x--0--0-0-0-0-0-0-0------------|
E|-----x-----x------------------------------|#/28t2##/28t1#

( D  F#m7  G  Gm7  D )

Solo Introdução:

#29t1#Parte 1 de 3
#29t2#E|----------------------------------------------------|
B|----------------------------------------------------|
G|-5-5-5--5/7-7--9-7/9~--9h10-9-9-7-7~----------------|
D|----------------------------------------------------|
A|----------------------------------------------------|
E|----------------------------------------------------|#/29t2##/29t1#
#30t1#Parte 2 de 3
#30t2#E|----------------------------------------------------|
B|-------------------------8-8-8h9-8-6----------------|
G|-5-5-7-5-7/10-9-9-7-7-5--------------5-7/9~---------|
D|----------------------------------------------------|
A|----------------------------------------------------|
E|----------------------------------------------------|#/30t2##/30t1#
#31t1#Parte 3 de 3
#31t2#E|----------------------------------------------------|
B|-8--------------------------------------------------|
G|---9\7-5---5h7~--7/9-5~--7---5----------------------|
D|---------7-----------------7---5/6~-----------------|
A|----------------------------------------------------|
E|----------------------------------------------------|#/31t2##/31t1#

Solo Refrão:
Parte 1 de 2
#32t1##32t2#E|----------------------------------------------------|
B|----------------------------------------------------|
G|-5-5-5--5/7-7--9-7/9~--9h10-9-9-7-7~----------------|
D|----------------------------------------------------|
A|----------------------------------------------------|
E|----------------------------------------------------|#/32t2##/32t1#
#33t1#Parte 2 de 2
#33t2#E|----------------------------------------------------|
B|-------------------------8-8-8h9-8-6~---------------|
G|-5-5-7-5-7/10-9-9-7-7-5-----------------------------|
D|----------------------------------------------------|
A|----------------------------------------------------|
E|----------------------------------------------------|#/33t2##/33t1#

#34t1#Solo Modulação:
#34t2#E|----------------------------------------------------|
B|---------5------------------------------------------|
G|-5-5-5-7---6-7-9------------------------------------|
D|----------------------------------------------------|
A|----------------------------------------------------|
E|----------------------------------------------------|#/34t2##/34t1#

Solo Final:
Parte 1 de 3
#35t1##35t2#E|----------------------------------------------------|
B|----------------------------------------------------|
G|-7-7-7-9-9-11-9h11~--11/12-11-11-9-9~---------------|
D|----------------------------------------------------|
A|----------------------------------------------------|
E|----------------------------------------------------|#/35t2##/35t1#
#36t1#Parte 2 de 3
#36t2#E|----------------------------------------------------|
B|----------------------------------------------------|
G|-7-7-9-7-9/12-11-11-9-9-7---------------------------|
D|----------------------------------------------------|
A|----------------------------------------------------|
E|----------------------------------------------------|#/36t2##/36t1#
#37t1#Parte 3 de 3
#37t2#E|----------------------------------------------------|
B|-10-10-10h11~-10~-~8~--7h8p7\5~--2-3----------------|
G|-------------------------------------2/4~-----------|
D|----------------------------------------------------|
A|----------------------------------------------------|
E|----------------------------------------------------|#/37t2##/37t1#
Composição: Adriann / Mauricio MelloColaboração e revisão: Leandro SandimDJ FUNKMicael Silvadeivid diase mais 17
Videoaula Louca de Saudade (aula de violão completa)