busca

Homem Torto

k a m a i t a c h i

Tom: Ebm (forma dos acordes no tom de Dm) Capotraste na 1ª casa
[Intro] Dm  F  Bb  A
        Dm  F  Bb  A

Parte 1 de 2  

  Dm             F         Bb
E|---1-1---1-1------------------------------|
B|---3-3---3-3----1-1---X----3-3---3-3------|
G|---2-2---2-2----2-2---X----3-3---3-3------|
D|-0-----0--------3-3---X----3-3---3-3------|
A|-------------------------1-----1----------|
E|--------------1-----1---------------------|

Parte 2 de 2

    A
E|------------------------------------------|
B|---2--3-2-0-2-----------------------------|
G|---2--------------------------------------|
D|---2--------------------------------------|
A|-0----------------------------------------|
E|------------------------------------------|

  Dm             F         Bb
E|---1-1---1-1------------------------------|
B|---3-3---3-3----1-1---X----3-3---3-3------|
G|---2-2---2-2----2-2---X----3-3---3-3------|
D|-0-----0--------3-3---X----3-3---3-3------|
A|-------------------------1-----1----------|
E|--------------1-----1---------------------|

    A
E|------------------------------------------|
B|---2-2---2-2------------------------------|
G|---2-2---2-2------------------------------|
D|---2-2---2-2------------------------------|
A|-0-----0----------------------------------|
E|------------------------------------------|

Dm                  F
   Ele pode até não ter olhos
    Bb             A
Mas sabe onde você se esconde
Dm              F
   Ele parece estar feliz
   Bb             A
Em ver o medo que te consome

[Pré-Refrão]

Dm         F
Homenzinho torto
        Bb
Bela cartola você tem
   A
Cartola você tem
Dm         F
Homenzinho torto
    Bb
Com seu andar de morto
        A
Monstro que vem do além

[Refrão]

Dm
1, 2
F
Não olhe pra trás
Bb
3, 4
   A
Correr não adianta mais
Dm
5, 6
   F
Chegou a sua vez
   Bb
7, 8, 9, 10
    A
Ele vai puxar seus pés

Dm
1, 2
F
Não olhe pra trás
Bb
3, 4
   A
Correr não adianta mais
Dm
5, 6
   F
Chegou a sua vez
   Bb
7, 8, 9, 10
    A
Ele vai puxar seus pés

( Dm  F  Bb  A )
( Dm  F  Bb  A )

Dm                    F
   Ele senta em uma cadeira
   Bb          A
Ao lado da sua cama
Dm           F
   Ele sorri vendo
                    Bb
Você se debatendo enquanto
             A
Corta sua garganta

[Pré-Refrão]

Dm         F
Homenzinho torto
        Bb
Bela cartola você tem
   A
Cartola você tem
Dm         F
Homenzinho torto
    Bb
Com seu andar de morto
        A
Monstro que vem do além

[Refrão]

Dm
1, 2
F
Não olhe pra trás
Bb
3, 4
   A
Correr não adianta mais
Dm
5, 6
   F
Chegou a sua vez
   Bb
7, 8, 9, 10
    A
Ele vai puxar seus pés

Dm
1, 2
F
Não olhe pra trás
Bb
3, 4
   A
Correr não adianta mais
Dm
5, 6
   F
Chegou a sua vez
   Bb
7, 8, 9, 10
    A
Ele vai puxar seus pés

( Dm  F  Bb  A )
( Dm  F  Bb  A )

Dm                    F
   Ele senta em uma cadeira
   Bb          A
Ao lado da sua cama
Dm           F
   Ele sorri vendo
                    Bb
Você se debatendo enquanto
             A
Corta sua garganta

Clipes