Alô Minas Gerais

Kleo Dibah & Rafael

Am
123
X02210
C
123
X32010
D
123
XX0232
Em
12
022000
G
123
320003
Tom: G

Intro: Em  C  G  D
E|------------------------------
B|-----8-----------8-12/13-12---
G|-7/9--9-----8/9---------------
D|----9--10------10-------------
A|------------------------------
E|------------------------------

E|-----10--10--8---8--8--8--7-5-7--| 
B|10/12--12----10--10-10-10-8-7-8--| 
G|---------------------------------| 
D|---------------------------------| 
A|---------------------------------| 
E|---------------------------------| 



 Em             C
  Alô, Minas Gerais
                   G
  Aqui é o meu lugar
                     D             
  Vou pra Patos de Minas, depois BH
Em

                C                  G
  Sou de Ituiutaba, nasci pra cantar
                 D                 
  Pra levar alegria onde meu povo 
 Em   C    G
tá   aah..
  D               Em   C    G  D
  Onde meu povo tá   aah..

G D Em Hoje eu tô pagando pra ver C tô no meio da farra, boto pra G ferver D O Brasil vê a gente, também fala Em uai C A moda mineira é um trem bão G D dema.. aais Am Em Tem cachaça, viola e muié bonita por todo lugar Am E na nossa história tem o rei da D bola pro mundo lembrar ouoooh.. Refrão: Em C G D Em D G D Em Hoje eu tô pagando pra ver C tô no meio da farra, boto pra G ferver D O Brasil vê a gente, também fala Em uai C A moda mineira é um trem bão G D dema.. aais Am Mar e praia não rola, pois até Em agora ninguém nunca viu Am São Francisco não chora e também D faz história no nosso Brasil ouoooh.. (Refrão 2x)
Composição: Colaboração e revisão: luiz

Utilizamos cookies para personalizar sua experiência. Ao acessar o site, você concorda com a nossa Política de Privacidade.