busca

Ta de Borest

Kuase Nada

Tom: D
Solo Intro:
E|------------------------------------------------------------|
B|------------------------------------------------------------|
G|------------------------------------------------------------|
D|------------------------------------------------------------|
A|--2---2-2/5-------5--5/9--9-7---7h9-7-----------------------|
E|------------------------------------------------------------|

E|------------------------------------------------------------|
B|--10-10-10-10---8h10p8-8-8--7-8-7---8-7---5-5-5---5h7p5-3---|
G|----------------------------------7-------------7-----------|
D|------------------------------------------------------------|
A|------------------------------------------------------------|
E|------------------------------------------------------------|

E|---5------5-3-2---------------------------------------------|
B|-3---3--3-------5-3---3-3-3--3-0----------------------------|
G|------------------------------------------------------------|
D|------------------------------------------------------------|
A|------------------------------------------------------------|
E|------------------------------------------------------------|

Intro 2x: Bm  G  D  A

Bm                       G
Hoje aconteceu, (o quê?) tudo o que eu queria
D                     A
Fiz coisa pra caralho mas no fundo nao sabia
Bm                          G
Fui pro banheiro aperta um, pra começar a session
D                         A
E depois um um cigarrin', só pra ficar de borest
Bm                             G
E na sequência eu fui pra rua, com meu skatin'
D                  A
Enquanto eu andava tofava meu digizin'
Bm                           G
Chegando na casa do brother, já muito doidão
D                   A
Entrei pela cozinha e senti um cheiro bom
Bm                        G
O moleque tava no quarto, babando no travesseiro
D                         A
Eu disse "acorda moleque, eu ja tofei o meu primeiro"
Bm                          G
Logo depois que ele acordou vamos continuar o session
D                             A
Minha mãe não tá em casa então

         Bm
Tá de borest
G
Eu disse ôoh
D             A
Tá de borest (ôooh)
Bm         G D A
Tá de boreeest

Bm                      G
Depois Fomos pro posto, matar um laricão
D                      A
Hot dog e um suquinho, isso aqui tá muito bom
Bm                    G
E agora não tem grana pra comprar o meu careta
D               A
Só tenho R$1,50 pra comprar minha camiseta
Bm                           G
Eu vou na casa da minha mina o pai dela não tá lá
D                       A
Hoje o dia vai ser bom, vai rolar o papapá
Bm                      G
Eu te dou minha camisa, mas compra um cigarrin'
D                             A
Que depois de um rango desse, eu tô na fissura sim
Bm                       G
E na inércia nós vazamos pra continuar a session
D                              A
Cigarrin' depois do rango então

         Bm
Tá de borest
G
Eu disse ôoh
D             A
Tá de borest (ôooh)
Bm         G D A
Tá de boreeest

Bm                  G
Depois a galera foi pro garagem de baú
D                      A
Mas no meio do caminho os homens deram bacú
Bm                      G
O gambé não achou nada, a parada tava no mato
D                       A
Como o gambé não sabia, ele ficou indignado
Bm                  G
"Cadê essa parada", o gambé me perguntou
D                              A
Eu disse "não mecho com isso", ele não acreditou
Bm                  G
Comecei a disfarçar mas o gambé não percebeu
D                             A
E no final das contas o pé de botas se fudeu
Bm                    G
E agora não tem jack, o que é que vamos fazer?
D                               A
Que tal entrar na roda e começar a se bater

Bm                 G
Saindo do garagem completamente suado,
D                            A
Eu tinha que admitir que eu tava muito passado!
Bm                 G
Mas aquela noite valeu a pena, sangue bom
D                          A
Além de bater cabeça, eu tava muito doidão!
Bm                         G
Então vamos pegar o atalho que eu tenho que ir pra casa
D                              G
Eu só vou comprar uma breja e pegar minha parada
Bm                 G
Mas agora fudeu! Eu esqueci onde moquei.
D                                      A
Fiquei pensando e procurando até que enfim eu encontrei então!

( Bm / G / D / A )
Pega essa parada e bota logo aí no saco,
Que o baú já vai passar nós vamos chegar atrasado...
Moleque, sai dessa nóia, aqui não passa mais baú!
Mas no meio do caminho agente vai levar outro bacu...!

Só tem mais uma fyna, vamos continuar a session
Depois que a fyna for pra mente, tá de borest! (4x)


Clipes