Shallow (feat. Bradley Cooper)

Lady Gaga

A9
12
X02200
Am
123
X02210
Am/G
1234
3X221X
Bm
234
X24432
C
123
X32010
D9
12
XX0230
D9/F#
123
2X0230
Em7
123
022030
G5
134
355XXX
Tom: G
[Intro] Em7  D9/F#  G5
        C  G5  D9
        Em7  D9/F#  G5

[Dedilhado]

Parte 1 de 3

#1t1#   Em7     D9/F#  G5  C 
#1t2#E|--------------------------------0---------|
B|-----3-----3----3-------1-3-------3-------|
G|-------0---2----0-----0-----0-------------|
D|-----------0----0-------------------------|
A|--------------------3---------3-----------|
E|-0-0-----2-2----3-------------------------|#/1t2##/1t1#

Parte 2 de 3

#2t1#   G5   D9
#2t2#E|--------0h2p0-----------------------------|
B|---3--3-------3---------------------------|
G|---0--2---------2-------------------------|
D|------0-----------------------------------|
A|------------------------------------------|
E|-3----------------------------------------|#/2t2##/2t1#

Parte 3 de 3

#3t1#   Em7     D9/F#  G5   
#3t2#E|------------------------------------------|
B|-----3-----3----3-------------------------|
G|-------0---2----0-------------------------|
D|---2-------0----0-------------------------|
A|------------------------------------------|
E|-0-------2-2----3-------------------------|#/3t2##/3t1#

[Primeira Parte]

Em7          D9/F#      G5
    Tell me something, girl
C                        G5     D9
  Are you happy in this modern world
Em7        D9/F#    G5
    Or do you need more
C                          
  Is there something else 
        G5        D9
You’re searching for

Em7  D9/F#  G5
I’m fal____ling
C
  In all the good times
   G5     D9
I find myself longing 
Em7  D9/F#  G5  
    For   change
C                         G5     D9
  And in the bad times I fear myself

( Em7  D9/F#  G5 ) (2x)

Em7          D9/F#      G5
    Tell me something, boy
C
  Aren’t you tired trying 
    G5        D9
To fill that void
Em7        D9/F#    G5
    Or do you need more
C                           G5     D9   
  Ain’t it hard keeping it so hardcore

Em7  D9/F#  G5
I’m fal____ling
C
  In all the good times
   G5     D9
I find myself longing 
Em7  D9/F#  G5  
    For   change
C                         G5     D9
  And in the bad times I fear myself

[Primeira Parte – Dedilhado 1 - 4x]

Parte 1 de 2

#4t1#   Em7     D9/F#  G5
#4t2#E|------------------------------------------|
B|-----3-----3----3-------------------------|
G|-------0---2----0-------------------------|
D|---2-------0----0-------------------------|
A|------------------------------------------|
E|-0-------2-2----3-------------------------|#/4t2##/4t1#

Parte 2 de 2

#5t1#   C               G5   D9
#5t2#E|--------------------------0h2p0-----------|
B|-----1-----1-------3--3---------3---------|
G|---0---0-----0-----0--2-2-----------------|
D|---------2-----2---0--0-------------------|
A|-3----------------------------------------|
E|-----------------3------------------------|#/5t2##/5t1#

[Repete - Parte 1]
[Repete - Parte 2]
[Repete - Parte 1]
[Repete - Parte 2]
[Repete - Parte 1]

Parte 2 de 2 (Final)

#6t1#   C               G5   D9
#6t2#E|------------------------------------------|
B|-----1-----1-------3--3-------------------|
G|---0---0-----0-----0--2-2-----------------|
D|---------2-----2---0--0-------------------|
A|-3----------------------------------------|
E|-----------------3------------------------|#/6t2##/6t1#


[Primeira Parte – Dedilhado 2 - 2x]

#7t1#   Em7     D9/F#  G5
#7t2#E|------------------------------------------|
B|-----3-----3----3-------------------------|
G|-------0---2----0-------------------------|
D|---2-------0----0-------------------------|
A|------------------------------------------|
E|-0-------2-2----3-------------------------|#/7t2##/7t1#

[Refrão]

Am
I’m off the deep end
 D9/F#
Watch as I dive in
G5          D9        Em7
I’ll never meet the ground

  Am
Crash through the surface
  D9/F#
Where they can’t hurt us
       G5            D9     Em7
We’re far from the shallow now

Am                   D9/F#
   In the shallow, shallow
G5          D9         Em7
   In the sha, sha-la-la-la-llow
Am                   D9/F#
   In the shallow, shallow
       G5            D9     Em7
We’re far from the shallow now


[Refrão]

Parte 1 de 2

#8t1#   Am                 D9/F#
#8t2#E|-----------0------------------0-----------|
B|-----1-------1----------3-------3---------|
G|-------2-------2----------2-------2-------|
D|---2-----2------------0-----0-------------|
A|-0----------------------------------------|
E|-------------3------2---------------------|#/8t2##/8t1#

Parte 2 de 2

#9t1#   G5      D9       Em7
#9t2#E|-----------0----------------0-------------|
B|-----3-------3--------3-------3-----------|
G|-------0-------2--------0-------0---------|
D|---0-----0----------2-----2---------------|
A|------------------------------------------|
E|-3----------------0-----------------------|#/9t2##/9t1#

Parte 2 de 2 (Final)

#10t1#   Em7
#10t2#E|-----------0------------------------------|
B|-----3-------3----------------------------|
G|-------0-------0--------------------------|
D|---2-----2--------------------------------|
A|------------------------------------------|
E|-0----------------------------------------|#/10t2##/10t1#


[Ponte] Bm  D9  A9  Em7
        Bm  D9  A9


[Refrão]

Am
I’m off the deep end
 D9/F#
Watch as I dive in
G5          D9        Em7
I’ll never meet the ground

  Am
Crash through the surface
  D9/F#
Where they can’t hurt us
       G5            D9     Em7
We’re far from the shallow now

Am          Am/G      D9/F#
   In the shallow, shallow
G5          D9/F#      Em7
   In the sha, sha-la-la-la-llow
Am          Am/G      D9/F#
   In the shallow, shallow
       G5            D9/F#  Em7
We’re far from the shallow now
Composição: Andrew Wyatt / Anthony Rossomando / Lady Gaga / Mark RonsonColaboração e revisão: Leandro Sandimocimar júniorThiago AlmeidaLucas Restelli
Videoaula SHALLOW (feat. Bradley Cooper) (aula de violão completa)