busca

Shallow (feat. Bradley Cooper)

Lady Gaga

Tom: Em
[Intro] Em7  D/F#  G  C  G  D
        Em7  D/F#  G

   Em7      D/F# G
E|------------------------------------------|
B|-----3------3--3--------------------------|
G|-------0----2--0--------------------------|
D|---2--------------------------------------|
A|------------------------------------------|
E|-0--------2----3--------------------------|

   C                 G    D
E|--------------0------------0h2p0----------|
B|-----1-3--------3----3--3--------3--------|
G|---------------------0--2----------2------|
D|---2--------2-----------0-----------------|
A|-3--------3-------------------------------|
E|-------------------3----------------------|

   Em7      D/F# G 
E|------------------------------------------|
B|-----3------3--3--------------------------|
G|-------0----2--0--------------------------|
D|---2--------------------------------------|
A|------------------------------------------|
E|-0--------2----3--------------------------|

[Primeira Parte]

Em7         D/F#       G
   Tell me something, girl
C                        G      D
  Are you happy in this modern world?
Em7           D/F# G
   Or do you need more?
C                                 G         D
  Is there something else you’re searching for?

Em7     D/F#  G
   I’m fa___lling
C
  In all the good times
   G      D          Em7  D/F#  G
I find myself longing    for  change
C                         G      D
  And in the bad times I fear myself

( Em7  D/F#  G )
( Em7  D/F#  G )

[Segunda Parte]

Em7         D/F#       G
   Tell me something, boy
C                             G         D
  Aren’t you tired trying to fill that void?
Em7       D/F#     G
   Or do you need more?
C                           G      D
  Ain’t it hard keeping it so hardcore?

Em7     D/F#  G
   I’m fa___lling
C
  In all the good times
   G      D          Em7  D/F#  G
I find myself longing    for  change
C                         G      D
  And in the bad times I fear myself

[Pré-Refrão]

Am               Am/G  D/F#            
I’m off the deep end, watch as I dive in
G           D         Em7
I’ll never meet the ground
Am                      Am/G            
  Crash through the surface
  D/F#
Where they can’t hurt us
       G             D      Em7
We’re far from the shallow now

[Refrão]

Am          Am/G     D/F#
   In the shallow, shallow
G          D        Em7
  In the shallow, shallow
Am          Am/G     D/F#
   In the shallow, shallow
       G             D      Em7
We’re far from the shallow now

( Bm  D  A  Em )
( Bm  D  A )

[Pré-Refrão]

Am               Am/G  D/F#            
I’m off the deep end, watch as I dive in
G           D         Em7
I’ll never meet the ground
Am                      Am/G            
  Crash through the surface
  D/F#
Where they can’t hurt us
       G             D      Em7
We’re far from the shallow now

[Refrão]

Am          Am/G     D/F#
   In the shallow, shallow
G          D        Em7
  In the shallow, shallow
Am          Am/G     D/F#
   In the shallow, shallow
       G             D      Em7
We’re far from the shallow now

Clipes