A Feedbag Of Truckstop Poetry

Lagwagon

Tom: G
Tabbed by:nofxmike      
Email:*
Album: lets talk about leftovers--(this song intended for an EP)
Tuning:EADgbe

intro:

guitar 1:
 clean tone(slight drive)
#1t1##1t2#e|---0------0---0--|
B|---2------5---7--|
G|---2------4---6--|
D|---2------5---7--|
A|---0------0---0--|
E|-----------------|#/1t2##/1t1#

verse 1:

#2t1#           i pulled o-ver for-a teabag        i  thought-of you-itwasn'tbad  
#2t2#e|--------------------------------------------------------------------------|
B|--------------------------------------------------------------------------|
G|------------------------7--7-7-7-7---7-6-7---7--7------7--7---7--7--7-6---|
D|-7--7-7-7-7-7-7-7-7-7-7-7--7-7-7-7---7-7-7---7--7------7--7---7--7--7-7---|
A|-7--7-7-7-7-7-7-7-7-7-7-5--5-5-5-5---5-5-5---5--5------5--5---5--5--5-7---|
E|-5--5-5-5-5-5-5-5-5-5-5-----------------------------------------------5---|
PM   |-------------------|             ^ ^ ^                ^      ^    ^#/2t2##/2t1#

#3t1#        you
#3t2#e|----------|
B|----------|
G|---7-7-7--|
D|---7-7-7--|
A|---5-5-5--|
E|----------|
     ^ ^ ^#/3t2##/3t1#

#4t1#   had direction   and drive          and you   ar-rived at-closing time 
#4t2#e|--------------------------------------------------------------------------|
B|--------------------------------------------------------------------------|
G|--7--7-7-7-7-----7-6-7--------------7--7------7--7-----7--7--7-6----------|
D|--7--7-7-7-7-----7-7-7--------------7--7------7--7-----7--7--7-7----------|
A|--5--5-5-5-5-----5-5-5--------------5--5------5--5-----5--5--5-7----------|
E|---------------------------------------------------------------5----------|
                   ^ ^ ^                           ^        ^    ^#/4t2##/4t1#
#5t1##5t2#e|----------|
B|----------|
G|---7-7-7--|
D|---7-7-7--|
A|---5-5-5--|
E|----------|
     ^ ^ ^#/5t2##/5t1#
refrain:

#6t1#   to-find-they wiped down the-bar 
#6t2#e|-------------------------------------|
B|-------------------------------------|
G|-7-----7--------------------6-7-6-4--|
D|-7-----7----7----9------------------9|
A|-5-----5----7----9-------------------|
E|------------5----7-------------------|#/6t2##/6t1#

#7t1##7t2#e|-------------------------------------|
B|-------------------------------------|
G|-7-----7--------------------6-7-6-4--|
D|-7-----7----7----9------------------9|
A|-5-----5----7----9-------------------|
E|------------5----7-------------------|#/7t2##/7t1#

post-chorus:

#8t1#  laid your head to rest and left you
#8t2#e|------------------------|
B|------------------------|
G|------------------------|
D|--7---------------9-----|
A|--7---------------9-----|
E|--5---------------7-----|#/8t2##/8t1#

#9t1##9t2#e|-----------------------|
B|-----------------------|
G|--7-----------------12-|
D|--7-------7---------12-|
A|--5-------7---------10-|
E|----------5------------|
                       .#/9t2##/9t1#

verse 2:
  you may be proud then               
#10t1##10t2#e|-----------------------------------|
B|-----------------------------------|
G|--7--7-7-7-7-----7-6-7-------------|
D|--7--7-7-7-7-----7-7-7-------------|
A|--5--5-5-5-5-----5-5-5-------------|
E|-----------------------------------|#/10t2##/10t1#

#11t1#as it was 
#11t2#e|----------|
B|----------|
G|---7-7-7--|
D|---7-7-7--|
A|---5-5-5--|
E|----------|
     ^ ^ ^      #/11t2##/11t1#
                                          
#12t1#     al   -ways-wish-for- thought 
#12t2#E|-------------------------|
B|-------------------------|
G|---7-----7---7-----7---6-|
D|---7-----7---7-----7---7-|
A|---5-----5---5-----5---5-|
E|-------------------------|
     ^         ^         ^#/12t2##/12t1#

#13t1#    i would imagine you off            maybe i could    see you again 
#13t2#e|-------------------------------------------------------------------|
B|-------------------------------------------------------------------|
G|--7--7-7-7-7------7-6-7--------------7--7------7--7-----7--7--7-6--|
D|--7--7-7-7-7------7-7-7--------------7--7------7--7-----7--7--7-7--|
A|--5--5-5-5-5------5-5-5--------------5--5------5--5-----5--5--5-5--|
E|-------------------------------------------------------------------|
                    ^ ^ ^                           ^        ^    ^#/13t2##/13t1#
#14t1#     we could sit 
#14t2#e|----------|
B|----------|
G|---7-7-7--|
D|---7-7-7--|
A|---5-5-5--|
E|----------|
     ^ ^ ^#/14t2##/14t1#
chorus:

#15t1#     down and have a mo    ment 
#15t2#e|-------------------------------------|
B|-------------------------------------|
G|-7-----7--------------------6-7-6-4--|
D|-7-----7----7----9------------------9|
A|-5-----5----7----9-------------------|
E|------------5----7-------------------|#/15t2##/15t1#

#16t1#   and talk about your suicide 
#16t2#e|-------------------------------------|
B|-------------------------------------|
G|-7-----7--------------------6-7-6-4--|
D|-7-----7----7----9------------------9|
A|-5-----5----7----9-------------------|
E|------------5----7-------------------|#/16t2##/16t1#

 post-chorus:

#17t1#and i would put away your death--if you could
#17t2#e|------------------------|
B|------------------------|
G|------------------------|
D|--7---------------9-----|
A|--7---------------9-----|
E|--5---------------7-----|#/17t2##/17t1#

#18t1#   put    a- way the- dope 
#18t2#e|-----------------------|
B|-----------------------|
G|--7-----------------12-|
D|--7-------7---------12-|
A|--5-------7---------10-|
E|----------5------------|
                       .#/18t2##/18t1#
bridge:

#19t1#  and all our enemies, well there's no time for you to know them 
#19t2#e|----------------------------------------------------|
B|----------------------------------------------------|
G|---------------------------7--7-7--7----------------|
D|-5--5-5--5----7--7-7--7----7--7-7--7---9--9-9--9----|
A|-5--5-5--5----7--7-7--7----5--5-5--5---9--9-9--9----|
E|-3--3-3--3----5--5-5--5----------------7--7-7--7----|#/19t2##/19t1#

#20t1#any crooked mind disease but-- hopeless fools they will be missing you 
#20t2#e|------------------------------------------------------|
B|------------------------------------------------------|
G|-----------------------------7--7-7--7----------------|
D|-5--5-5--5----7--7-7--7------7--7-7--7---5--5-5--5----|
A|-5--5-5--5----7--7-7--7------5--5-5--5---5--5-5--5----|
E|-3--3-3--3----5--5-5--5------------------3--3-3--3----|
                        .#/20t2##/20t1#

interlude:

#21t1#guitar 1:
#21t2#e|-----------------------------|
B|-----------------------------|
G|-----------------------------|
D|--5--5-5-5-5-5-5--9--9-9-7---|
A|--5--5-5-5-5-5-5--9--9-9-7---|
E|--3--3-3-3-3-3-3--7--7-7-5---|
PM    |-----------|#/21t2##/21t1#

#22t1# guitar 2:
#22t2#e|------------------------------|
B|-----------------8------7p5---|
G|----------7------------------7|
D|--5--7h9-------5---5----------|
A|------------------------------|
E|------------------------------|
       ^           ^      ^#/22t2##/22t1#
#23t1##23t2#e|------------------------------|
B|-----------------8------7p5---|
G|----------7------------------7|
D|--5--7h9-------5---5----------|
A|------------------------------|
E|------------------------------|
       ^           ^      ^#/23t2##/23t1#

then this:
guitar 1:
#24t1##24t2#e|----------|
B|----------|
G|----------|
D|--5---7---|
A|--5---7---|
E|--3---5---|#/24t2##/24t1#

guitar 1 again:

#25t1##25t2#e|------------------------------|
B|------------------------------|
G|------------------------------|
D|--9----------------7----------|
A|--9----------------7----------|
E|--7----------------5----------|#/25t2##/25t1#

 guitar 2:

#26t1##26t2#e|------------------------------|
B|----------7---------------7---|
G|------7------7---------7-----7|
D|---9---------------7----------|
A|------------------------------|
E|------------------------------|
     ^               ^#/26t2##/26t1#

verse 3:
    i pulled over for nostalgia              i thought of suf-fer-ing-the-joke 
#27t1##27t2#e|--------------------------------------------------------------------------|
B|--------------------------------------------------------------------------|
G|------------------------7--7-7-7-7---7-6-7---7--7------7--7---7--7--7-6---|
D|-7--7-7-7-7-7-7-7-7-7-7-7--7-7-7-7---7-7-7---7--7------7--7---7--7--7-7---|
A|-7--7-7-7-7-7-7-7-7-7-7-5--5-5-5-5---5-5-5---5--5------5--5---5--5--5-7---|
E|-5--5-5-5-5-5-5-5-5-5-5-----------------------------------------------5---|
PM   |-------------------|             ^ ^ ^                ^      ^    ^#/27t2##/27t1#

#28t1#         no one  
#28t2#e|----------|
B|----------|
G|---7-7-7--|
D|---7-7-7--|
A|---5-5-5--|
E|----------|
     ^ ^ ^#/28t2##/28t1#

#29t1# delivered the punchline               no reso-  lu     tion-is here
#29t2#e|--------------------------------------------------------------------------|
B|--------------------------------------------------------------------------|
G|--7--7-7-7-7-----7-6-7--------------7--7------7--7-----7--7--7-6----------|
D|--7--7-7-7-7-----7-7-7--------------7--7------7--7-----7--7--7-7----------|
A|--5--5-5-5-5-----5-5-5--------------5--5------5--5-----5--5--5-7----------|
E|---------------------------------------------------------------5----------|
                   ^ ^ ^                           ^        ^    ^#/29t2##/29t1#
chorus:

#30t1#   i couldn't sharpen the view 
#30t2#e|-------------------------------------|
B|-------------------------------------|
G|-7-----7--------------------6-7-6-4--|
D|-7-----7----7----9------------------9|
A|-5-----5----7----9-------------------|
E|------------5----7-------------------|#/30t2##/30t1#

#31t1#and it's still drawn to you waiting 
#31t2#e|-------------------------------------|
B|-------------------------------------|
G|-7-----7--------------------6-7-6-4--|
D|-7-----7----7----9------------------9|
A|-5-----5----7----9-------------------|
E|------------5----7-------------------|#/31t2##/31t1#

post-chorus:

#32t1#  on the new but then this 
#32t2#e|------------------------|
B|------------------------|
G|------------------------|
D|--7---------------9-----|
A|--7---------------9-----|
E|--5---------------7-----|#/32t2##/32t1#

#33t1#story has no end 
#33t2#e|-----------------------|
B|-----------------------|
G|--7--------------------|
D|--7-------7---------5--|
A|--5-------7---------5--|
E|----------5---------3--|#/33t2##/33t1#

outro:

#34t1# as we contin----ue driving
#34t2#e|--------------------------------|
B|--------------------------------|
G|---------------7--7-7--7--7-6-7-|
D|-5--5-5--5-----7--7-7--7--7-7-7-|
A|-5--5-5--5-----5--5-5--5--5-5-5-|
E|-3--3-3--3----------------------|       #/34t2##/34t1#
               
| /  slide up
| \  slide down
| h  hammer-on
| p  pull-off 
| ~  vibrato
| +  harmonic
| x  Mute note
| ^  accent
| .  staccato
=============================================================================
Composição: Colaboração e revisão: