After You My Friend

Lagwagon

A
123
X02220
B
234
X24442
C#
234
X46664
C#m7
34
X46454
Cdim
234
X34242
D#5
134
X688XX
E
123
022100
F#
234
244322
F#7
34
242322
G#
234
431114
Tom: G


Tabbed by: Jay Leggate :)
*

Chords to clarify:
   C#m7   F#7  Bmaj7  Cdim   E5*  Eb5*  G#5*  C#5*  Adim5  Bbaug5
#1t1##1t2#E---4------2-----2-----2-----X-----X-----X-----X-----X-------X
B---5------2-----4-----4-----X-----X-----X-----X-----X-------X
G---4------3-----3-----2-----4-----X-----8-----X-----X-------X
D---6------2-----4-----4-----2-----8-----6-----6-----X-------4
A---4------4-----2-----3-----2-----6-----6-----4-----6-------1
E---X------2-----X-----X-----X-----6-----X-----4-----5-------X#/1t2##/1t1#

All Chords are 5ths unless otherwise stated (power chords)
You can figure out where the palm muting is and the distortion and clean
are... 'cause i can't.  

Intro:
B...(Eb octave)
B F# G# E B C# F#

Verse:
B Bbaug5 G# F# E B C# F#
B Bbaug5 G# F# Eii B C# F#
E F# G# A B F# G# A D#5*
Eii Ebii Emaj(hit higher strings on upstroke) Eb5* A
B F#

#2t1#Repeat 1st two lines of verse then:
  C#m7       F#7         Bmaj   Cdim
#2t2#E-------------------------------------------   
B--5---7-5-4-------4-5---4-5-4-----------4--   
G------------6-6-6-------------6-5-5-5-6----X2 
D-------------------------------------------   
A-------------------------------------------   
E------------------------------------------- #/2t2##/2t1#

#3t1#  C#m7       F#7         Bmaj   Cdim         C#m7     F#7
#3t2#E--4-----4-2-------2-4---2-4-2----------------4-2------------------   
B--5---7-5-4-5-5-5-4-5---4-5-4-5-4-4-4/5/7----5-4-5-4--------------
G------------6-6-6-------------6-5-5-5/6/8--------6-4-3-----3h4h6--
D----------------------------------------------------4---4---------
A------------------------------------------------------------------
E------------------------------------------------------------------#/3t2##/3t1#
then..

Intro but with timing change
Verse is same until...

"well aware" which is on A
"of his pride..."
         E5* C A Adim5 C#* G#* E Eii (x4 but last two chords are F# and Emaj)
i actually ripped this off some guy but im sure he doesn't give a fuck if i 
get all the credit. he he he
Composição: Colaboração e revisão: