busca

Back One Out Live

Lagwagon

Tom: A#
.........................................
_________________________________________

NOT IN TAB: MESSAGE TO ULTIMATE *!

I have sent you another version of this tab (Diffrent verses riff.)
THIS ONE IS CORRECT. Delete the other one!

Thank you
chris
MESSAGE END
_________________________________________
.........................................

Album: Live In A Dive

Tabbed by: Chris W.
Date: 10/23/05
Contact: LCPD@gmx.at

~-~-~-~-~-~-~-~-~-~-~-~-~-~-~-~-~-~-~-~-~-~-~-~-~-~-~

I hope you´ll like this tab! Please rate and comment it.
If you want to write me a mail then write at: LCPD@gmx.at

So now have fun and

|| ROCK ON! || ;)

~-~-~-~-~-~-~-~-~-~-~-~-~-~-~-~-~-~-~-~-~-~-~-~-~-~-~

Symbols:

: = reapeat (listen to the song for how many times!)
~ = let ring
/ = slide up
\ = slide down

 
|BASS Intro:
e|--------------------------|
b|-------------------------:|
g|--------------------------|
d|--------------------------|
a|-------------------------:|
e|--0--3-6-5---0--3-6-5-----|

(This (bass-)riff is maybe not right because I am not
 a bass player! :)


|Intro:
e|---------------------------------|
b|--------------------------------:|
g|---------------------------------|
d|---5~-----------5~---------------|
a|---5~-----------5~--------------:|
e|---3~-----------3~---------------|


|Verses and main-riff:
e|---------------------------------|
b|--------------------------------:|
g|---------------------------------|
d|---55--7---55--8-----------------|
a|---55--7---55--8----------------:|
e|---33--5---33--6-----------------|

 
|Chorus:
e|---------------------------------|
b|--------------------------------:|
g|---------------------------------|
d|---5/8\7/9----5/8\7/9------------|
a|---5/8\7/9----5/8\7/9-----------:|
e|---3/6\5/7----3/6\5/7------------|

Clipes

Cifra Club Pro

Aproveite o Cifra Club com benefícios exclusivos e sem anúncios
Cifra Club Pro
Aproveite o Cifra Club com benefícios exclusivos e sem anúncios