Bad Scene

Lagwagon

Tom: G


By: CHENZ (*)(http://*~vmarvaso)

#1t1#Verse
#1t2#e|---------------------------------------------------------------------------|
B|---------------(3x)-then double-time first two chords----------------------|
G|--9--11--------------------------------------------------------------------|
D|--9--11--9--6--------------------------------------------------------------|
A|--7---9--9--6--------------------------------------------------------------|
E|---------7--4--------------------------------------------------------------|#/1t2##/1t1#

#2t1#Chorus
#2t2#e|---------------------------------------------------------------------------|
B|----------------------------------------------------------then repeat verse|
G|-------------(2x)---"so fuck longevity....--pm^^^^pm^^^^-------------------|
D|--9--6--2--4---------2--4--9--8--6--4-------2-----4------------------------|
A|--9--6--2--4---------2--4--9--8--6--4-------2-----4------------------------|
E|--7--4--0--2---------0--2--7--6--4--2-------0-----2------------------------|#/2t2##/2t1#

#3t1#Outro
#3t2#e|---------------------------------------------------------------------------|
B|-----"im against it......................bad scene"------------------------|
G|---------------------------------------------------------------------------|
D|-------------------------------------(4x)----------------------------------|
A|---------9-6-6666-7-6/7/6--4-4/6-9-------end on----------------------------|
E|------777--------------------------7-------7-------------------------------|#/3t2##/3t1#
Composição: Colaboração e revisão: