Beer Goggles

Lagwagon

Tom: G


By:Peter Lindholm

#1t1#Intro:
#1t2#e |-----------------|-----------------|
B |-----------------|-----------------|
G |-----------------|-----------------|
D |-----9-------5---|-----7-------5---|
A |---7---7---7---7-|---5---5---7---7-|
E |-0-------0-------|-0-------0-------|
  |                             |#/1t2##/1t1#
#2t1#  |                             |
#2t2#e |-----------------|-----------------|
B |-----------------|-----------------|
G |-----------------|-----------------|
D |-9-9-9-9-4-4-4-4-|-5-5-5-5---------|
A |-7-7-7-7-2-2-2-2-|-3-3-3-3-5-5-5-5-|
E |-----------------|---------3-3-3-3-|#/2t2##/2t1#

#3t1##3t2#e |----------|---------|----------|---------|
B |----------|---------|----------|---------|
G |----------|---------|----------|---------|
D |----------|---------|----------|---------|
A |-2------2-|-2-------|-2------2-|-2-2-2-2-|
E |-0------0-|-0-------|-0------0-|-0-0-0-0-|#/3t2##/3t1#

#4t1##4t2#e |------------|---------------|
B |------------|---------------|
G |------------|---------------|
D |-9----4-5-7-|-(7)-----------|
A |-7----2-3-5-|-(5)----5-5-4--|
E |------------|--------3-3-2--|#/4t2##/4t1#

#5t1#Verse:
#5t2#e |----------------|-----------------|----------------|-----------------|
B |----------------|-----------------|----------------|-----------------|
G |----------------|-----------------|---9------------|---11------------|
D |-9-7-9--9-9-9-7-|-9-12-9--9-9-9-7-|-9-7-9--9-9-9-7-|-9-9--9--9-9-9-7-|
A |-7-5-7--7-7-7-5-|-7-10-7--7-7-7-5-|-7---7--7-7-7-5-|-7----7--7-7-7-5-|
E |----------------|-----------------|----------------|-----------------|#/5t2##/5t1#

#6t1##6t2#e |------|------|
B |------|------|
G |------|------|
D |-5----|-7----|
A |-3----|-5----|
E |------|------|#/6t2##/6t1#
   You can probably......

#7t1#Ref:
#7t2#e |------|------|----------------|-----------------|
B |------|------|----------------|-----------------|
G |------|------|----------------|-----------------|
D |------|------|----------------|-----------------|
A |-5----|-7----|-9-7-9--9-9-9-7-|-9-12-9--9-9-9-7-|
E |-3----|-5----|-7-5-7--7-7-7-5-|-7-10-7--7-7-7-5-|#/7t2##/7t1#
   Oh,       beer goggles.

#8t1##8t2#e |------|------|------|------|
B |------|------|------|------|
G |------|------|------|------|
D |------|------|------|------|
A |-5----|-7----|-3----|-5----|
E |-3----|-5----|-1----|-3----|#/8t2##/8t1#
Composição: LagwagonColaboração e revisão: