Billionaire Solo

Lagwagon

Tom: G
Tabbed by: yelofnivek


Tuning: standard

#1t1##1t2#e|---------------------------------------------------------------------------|
B|---------------------------------------------------------------------------|
G|---------------------------------------------------------------------------|
D|---------------------------8----8-10---------------------------------------|
A|----------------8-10--8-10---10--------------------------------------------|
E|---6/8--11-8-11------------------------------------------------------------|#/1t2##/1t1#

#2t1##2t2#e|---------------------------------------------------------------------------|
B|------------------------8--8--------8-11-8-11------------------------------|
G|-------------8-10^-10---11-12--8-10----------------------------------------|
D|---8----8-10---------------------------------------------------------------|
A|-----10--------------------------------------------------------------------|
E|---------------------------------------------------------------------------|#/2t2##/2t1#

#3t1##3t2#e|----8----------------------------------------------------------------------|
B|-11---11-8-11-8----8-------------------------------------------------------|
G|----------------10---10-8-10-8----8----------------------------------------|
D|-------------------------------10---10-8-10-8----8-------------------------|
A|----------------------------------------------10---10-8-10-8----8----------|
E|-------------------------------------------------------------11---11-8-11-8|#/3t2##/3t1#

im really not too sure about it but i love this solo and tried my best to tab it


| /  slide up
| \  slide down
| h  hammer-on
| p  pull-off
| ~  vibrato
| +  harmonic
| x  Mute note
===============================================================================
Composição: Antonio Buglione / Fat Mike / Gerald V. Casale / Ian McCulloch / Joey Cape / Lagwagon / Les Pattinson / Mark Mothersbaugh / Pete de Freitas / Will SergeantColaboração e revisão: