busca

Billionaire Solo

Lagwagon

Tom: A#
Tabbed by: yelofnivek


Tuning: standard

e|---------------------------------------------------------------------------|
B|---------------------------------------------------------------------------|
G|---------------------------------------------------------------------------|
D|---------------------------8----8-10---------------------------------------|
A|----------------8-10--8-10---10--------------------------------------------|
E|---6/8--11-8-11------------------------------------------------------------|

e|---------------------------------------------------------------------------|
B|------------------------8--8--------8-11-8-11------------------------------|
G|-------------8-10^-10---11-12--8-10----------------------------------------|
D|---8----8-10---------------------------------------------------------------|
A|-----10--------------------------------------------------------------------|
E|---------------------------------------------------------------------------|

e|----8----------------------------------------------------------------------|
B|-11---11-8-11-8----8-------------------------------------------------------|
G|----------------10---10-8-10-8----8----------------------------------------|
D|-------------------------------10---10-8-10-8----8-------------------------|
A|----------------------------------------------10---10-8-10-8----8----------|
E|-------------------------------------------------------------11---11-8-11-8|

im really not too sure about it but i love this solo and tried my best to tab it


| /  slide up
| \  slide down
| h  hammer-on
| p  pull-off
| ~  vibrato
| +  harmonic
| x  Mute note
===============================================================================

Clipes

Cifra Club Pro

Aproveite o Cifra Club com benefícios exclusivos e sem anúncios
Cifra Club Pro
Aproveite o Cifra Club com benefícios exclusivos e sem anúncios