Billionaire

Lagwagon

Tom: G
Tabbed by: Jimbo
Email:

Tuning: standard


Intro - clean guitar

#1t1##1t2#|------------------------------------------------||
|-8--8--8-8--8--8-10-10--9--12-12-12-------------||
|-8--8--8-8--8--8-10-10-10--12-12-12-------------||
|------------------------------------------------||
|-----------6--6-6--8--8--8--10-10-10------------||
|---8--8-8---------------------------------------||#/1t2##/1t1#


play 3 times. on last time only play last chord once


Intro part 2 - distortion

#2t1#guitar 1
#2t2#|-------------------------------------------------------------||
|-------------------------------------------------------------||
|-3/5-555-55-5/8-888-88-8/10-101010-1010-10/12-121212-1212----||
|-------------------------------------------------------------||
|-1/3-333-33-3/6-666-66-6/8--8-8-8--8-8--8-/10-101010-1010----||
|-------------------------------------------------------------||#/2t2##/2t1#
play twice through

guitar 2 plays this chord the whole time

#3t1##3t2#|------------||
|------------||
|-5----------||
|------------||
|-3----------||
|------------||#/3t2##/3t1#




Intro part 3 - solo

rhythm guitar strums these chords

#4t1##4t2#|----------------|
|----------------|
|-5-8------------|
|-5-8-8-6--------|
|-3-6-8-6--------|
|-----6-4--------|#/4t2##/4t1#

someone else has tabbed the solo accurately enough,
so i won't tab it here. just mess around with the 
blues scale based around C


verse 1 - both guitars

* = play 6x

#5t1##5t2#|---------------------------------||
|--*-*---------9----*-------------||
|-5-8-10101010-10-12----5---3-----||
|-5-8-10101010-10-12----5-5-3-6---||
|-3-6-8-8-8-8--8--10----3-2-1-6---||
|-----------------------------4---||#/5t2##/5t1#
 \\play through twice//



chorus - both guitars

#6t1#"you have to honour me..."
#6t2#|---4---4-----------||
|-8-4-8-4-----------||
|-8-5-8-5-5-8--*-*--||
|-8-6-8-6-5-8-8-6---||
|-6-6-6-6-3-6-8-6---||
|---4---4-----6-4---||#/6t2##/6t1#

* = acoustic


cool riff - both guitars

#7t1##7t2#|----------------------||
|----------------------||
|-3/5-555--------------||
|-3/5-5555x55/6x66/8---||
|-1/3-3335x55/6x66/8---||
|--------3x33/4x44/6---||
play 4x#/7t2##/7t1#


verse 2 - both guitars + flanger

#8t1##8t2#|--------------------------------||
|--------------------------------||
|-5-3-----5-3--------5---3-------||
|-5-3-6-5-5-3-3-5----5-5-3-6-----||
|-3-1-6-5-3-1-3-5----3-2-1-6-----||
|-----4-3-----1-3----------4-----||#/8t2##/8t1#
\play through twice/


chorus 2 - both guitars

#9t1##9t2#|--*4*-*4*-------------4---||
|-8-4-8-4--------------4---||
|-8-5-8-5--5-8---5-8---5---||
|-8-6-8-6--5-8-8-5-8-8-6---||
|-6-6-6-6--3-6-8-3-6-8-6---||
|---4---4------6-----6-4---||#/9t2##/9t1#

* = play as triplets



outro 

#10t1#guitar 1
#10t2#|------------------------------------------------------------------------------------------------||
|------------------------------------------------------------------------------------------------||
|-3/5-555-55-5/8-888-88-8/10-101010-1010-10/12-121212-1212--3/5-555-55-5/8-888-5--8888-5--8888-5-||
|------------------------------------------------------------------------------------------------||
|-1/3-333-33-3/6-666-66-6/8--8-8-8--8-8--8-/10-101010-1010--1/3-333-33-3/6-666-3--6666-3--6666-3-||
|------------------------------------------------------------------------------------------------||#/10t2##/10t1#

guitar 2 plays this chord the whole way through, keeping rhythm with 1st guitar

#11t1##11t2#|------------||
|------------||
|-5----------||
|------------||
|-3----------||
|------------||#/11t2##/11t1#


then play cool riff x4, then play final part:

guitar 1

#12t1##12t2#|----------------||
|--*-*-*-*-------||
|-5-7-8-4--5-----||
|----------------||
|-3-5-6-2--3-----||
|----------------||#/12t2##/12t1#

guitar 2

#13t1##13t2#|----------------||
|--*-*-----------||
|-5-3--*-*-5-----||
|-----6-5--------||
|-3-1------3-----||
|-----4-3--------||#/13t2##/13t1#


* = play 6x

| /  slide up
| \  slide down
| h  hammer-on
| p  pull-off
| ~  vibrato
| +  harmonic
| x  Mute note
===============================================================================
Composição: Antonio Buglione / Joey CapeColaboração e revisão: