Coffee And Cigarettes

Lagwagon

A
123
X02220
A-
123
X02210
B
234
X24442
B-
234
X24432
C#
234
X46664
D
123
XX0232
D-
123
XX0231
D7
123
XX0212
E
123
022100
E-
12
022000
F#
234
244322
G-
34
355333
Tom: G
Album: Trashed
As tabbed by Joe Muggah

 = pick slide down
~ = let ring
v = vibrato
m = palm mute


#1t1#Intro
#1t2#e-------------------------------------------------------------
B-------------------------------------------------------------
G------2----------------------------------------------------
D--2h4----4--2----------------4---4~------------------------
A---------------4-3-2-0--2----4---4~--------------------------
E---------------------------0-2---2~--------------------------#/1t2##/1t1#


#2t1#Riff
#2t2#e-------------------------------------------------------------
B-------------------------------------------------------------
G------------------------------------------------2------------
D------------------------------------2-----2h4-4----4m-2m-----
A-----------------------0------0h2h4---4-----------------4m---
E--2m-2m-2m-2m-2m-2m-2m----2----------------------------------#/2t2##/2t1#

#3t1#(continued)
#3t2#e-------------------------------------------------------------
B-------------------------------------------------------------
G-----------------------------------------------4~--6-6-6-6---
D-----------------------------------------------4~--6-6-6-6---
A--3m-2m-0m-4-----------------------0-----2-0---2~--4-4-4-4---
E--------------2m-2m-2m-2m-2m-2m-2m----2------2---------------#/3t2##/3t1#

#4t1#(continued)
#4t2#e-------------------------------------------------------------
B-------------------------------------------------------------
G-------------------------------------------2-----------------
D--------------------------------2----2h4-4----4m-2m----------
A---------------------0----0h2h4---4-----------------4m-3m-2m-
E--0m--2m-2m-2m-2m-2m---2-------------------------------------#/4t2##/4t1#

#5t1#(continued)
#5t2#e-------------------------------------------------------------
B-------------------------------------------------------------
G------------------------------------------4-----4-----4------
D------------------------------------------4--2--4--2--4-2----
A--0m-4-----------------------0-----2-0----2--2--2--2--2-2----
E--------2m-2m-2m-2m-2m-2m-2m----2------2-----0-----0----0----#/5t2##/5t1#


#6t1#Verse
#6t2#e-------------------------------------------------------------
B-------------------------------------------------------------
G---------7-7-----------4m-4m-4m-4m-------------7-7-----------
D--4-4----7-7----7-7----4m-4m-4m-4m-2----4-4----7-7----7-7----
A--4-4----5-5----7-7----2m-2m-2m-2m-2----4-4----5-5----7-7----
E--2-2-----------5-5----------------0----2-2-----------5-5----#/6t2##/6t1#

#7t1#(continued)
#7t2#e-------------------------------------------------------------
B-------------------------------------------------------------
G--4m--4m--4m------------7-7-----------4m-4m-4m-4m------------
D--4m--4m--4m-2----4-4---7-7----7-7----4m-4m-4m-4m-2----4-4---
A--2m--2m--2m-2----4-4---5-5----7-7----2m-2m-2m-2m-2----4-4---
E-------------0----2-2----------5-5----------------0----2-2---#/7t2##/7t1#

#8t1#(continued)
#8t2#e-------------------------------------------------------------
B-------------------------------------------------------------
G--7-7--------------------------------------------------------
D--7-7----7-7-7-7-7-7-7-7-------------------------------------
A--5-5----7-7-7-7-7-7-7-7-------------------------------------
E---------5-5-5-5-5-5-5-5-------------------------------------#/8t2##/8t1#


#9t1#Chorus A (Guitar 1, each hit 2 times)
#9t2#e-------------------------------------------------------------
B-------------------------------------------------------------
G--7-7-7-7-7------------------------6-6-6-6-6-----------------
D--7-7-7-7-7--4-4-4-4-4--2-2-2-2-2--6-6-6-6-6-----------------
A--5-5-5-5-5--4-4-4-4-4--2-2-2-2-2--4-4-4-4-4-----------------
E-------------2-2-2-2-2--0-0-0-0-0----------------------------#/9t2##/9t1#


#10t1#Chorus B (Guitar 2, each hit 2 times)
#10t2#e-------------------------------------------------------------
B-------------------------------------------------------------
G-14-14-14-14-14--11-11-11-11-11--13-13-13-13-13--16-16-13-13-
D--x--x--x--x--x---x--x--x--x--x---x--x--x--x--x---x--x--x--x-
A-12-12-12-12-12---9--9--9--9--9--11-11-11-11-11--14-14-11-11-
E-------------------------------------------------------------#/10t2##/10t1#


#11t1#Fill A (Guitar 1)       Fill B (Guitar 2)
#11t2#e----------------------|--------------------------------------
B----------------------|--------------------------------------
G--7-7-7-7-7--9-9-9-9--|--14-14-14-14-14--16-16-16-16---------
D--7-7-7-7-7--9-9-9-9--|---x--x--x--x--x---x--x--x--x---------
A--5-5-5-5-5--7-7-7-7--|--12-12-12-12-12--14-14-14-14---------
E----------------------|--------------------------------------#/11t2##/11t1#

#12t1#Bridge
#12t2#e-------------------------------------------------------------
B-------------------------------------------------------------
G-------------------------------------------------------------
D--4----4-4--------4--------2-------2----4----4-4--------2~---
A--4----4-4-4--4---4--2-3-4---4-3-2-2----4----4-4-4--4---2~---
E--2----2-2-5--5---2----------------0----2----2-2-5--5---0~---#/12t2##/12t1#


#13t1##13t2#e-------------------------------------------------------------
B-------------------------------------------------------------
G-----------------------------------------------------x-7-x-6-
D--x-7---4----4-4-------2---4-4~----4----4-4-------2--x-7-x-6-
A--x-7---4----4-4-4--4--2---4-4~----4----4-4-4--4--2--x-5-x-4-
E--x-5---2----2-2-5--5--0---2-2~----2----2-2-5--5--0----------#/13t2##/13t1#

#14t1#Solo A (Guitar 1)
#14t2#e----------9--------------------------12/14v---14h16h17p16p14-
B----------9--12------------10h12p10--------------------------
G--9/11v---------11v---9h11-----------------------------------
D-------------------------------------------------------------
A-------------------------------------------------------------
E-------------------------------------------------------------#/14t2##/14t1#

#15t1#(continued)
#15t2#e--12--14^---------------------------------------------------
B------------14--14--14--14p12p10-----------------------------
G-------------------------------------------------------------
D-------------------------------------------------------------
A-------------------------------------------------------------
E-------------------------------------------------------------#/15t2##/15t1#


#16t1#Solo B (Guitar 2)
#16t2#e-------------------------------------------------------------
B-14h15h17p15-14h15h17p15-14h15h17p15-14h15h17p15-14h15h17p15-
G-------------------------------------------------------------
D-------------------------------------------------------------
A-------------------------------------------------------------
E-------------------------------------------------------------#/16t2##/16t1#

#17t1#(continued)
#17t2#e-------------------------------------------------------------
B--14h15h17p15-14h15h17p15-14h15h17p15h17p15---17/19v---------
G-------------------------------------------------------------
D-------------------------------------------------------------
A-------------------------------------------------------------
E-------------------------------------------------------------#/17t2##/17t1#

#18t1#(continued)
#18t2#e--14h16h17p16p14--17/19v-p17p14--12/14v----------------------
B------------------------------------------14-12-10--10---14--
G-------------------------------------------------------------
D-------------------------------------------------------------
A-------------------------------------------------------------
E-------------------------------------------------------------#/18t2##/18t1#

#19t1#(continued)
#19t2#e-------------------------------------------------------------
B--14-p12p10--------------------------------------------------
G-------------11v--------------------------------------------
D-------------------------------------------------------------
A-------------------------------------------------------------
E-------------------------------------------------------------#/19t2##/19t1#


Intro
Riff
Verse
Chorus A, B
Riff
Verse
Chorus A, B
Bridge
Verse, Solo 1
Verse, Solo 2
Chorus A, B
Riff
===========


Jeremy McCully (webmaster@)

Tuning: Standard (E A D G B E)

Distortion throughout


#20t1#intro
#20t2#E|--------------------------------------------------------||
B|--------------------------------------------------------||
G|-----2-----------------------------pick-slide-----------||
D|-2h4---4-2--------------------------------------------||
A|-----------4-3-2-0-2--4-------4-----------------------||
E|--------------------0-2-------2-------------------------||#/20t2##/20t1#
                        ^stacco ^let ring

#21t1#intro 2
#21t2#E|--------------------------------------------------------||
B|--------------------------------------------------------||
G|----------------------------------2---------------------||
D|-------------2----------2---2h3h4---4-------------------||
A|---4-4-4-4-4-0----0h2h4---4-----------4-2-0-2-----------||
E|-0-2-2-2-2-2----2---------------------------------------||#/21t2##/21t1#
   pm.........                          pm.....

#22t1##22t2#E|--------------------------------------------------------||
B|--------------------------------------------------------||
G|--------------------------------------------------------||
D|-------------2----------4---------6666------------------||
A|---4-4-4-4-4-0----2h3h4-2---------4444------------------||
E|-0-2-2-2-2-2----2---------------------------------------||#/22t2##/22t1#
   pm.........            ^let ring

#23t1##23t2#E|--------------------------------------------------------||
B|--------------------------------------------------------||
G|----------------------------------2---------------------||
D|-------------2----------2---2h3h4---4-------------------||
A|---4-4-4-4-4-0----0h2h4---4-----------4-2-0-2-----------||
E|-0-2-2-2-2-2----2---------------------------------------||#/23t2##/23t1#
   pm.........                          pm.....

#24t1##24t2#E|--------------------------------------------------------||
B|--------------------------------------------------------||
G|--------------------------------------------------------||
D|-------------2----------4---4---4-----------------------||
A|---4-4-4-4-4-0----2h3h4-2-2-2-2-2-2---------------------||
E|-0-2-2-2-2-2----2---------0---0---0---------------------||#/24t2##/24t1#
   pm.........            


#25t1#verse
#25t2#E|--------------------------------------------------------||
B|--------------------------------------------------------||
G|--------------------------------------------------------||
D|-------7-77-------44444-------7-77------44444-----------||
A|-4-4---5-55--7-77-222222--4-4-7-55-7-77-222222----------||
E|-2-2---------5-55------0--2-2------5-55------0----------||#/25t2##/25t1#
                    pm...                 pm...

#26t1##26t2#E|--------------------------------------------------------||
B|--------------------------------------------------------||
G|--------------------------------------------------------||
D|-------7-77-------44444-------7-77----------------------||
A|-4-4---5-55--7-77-222222--4-4-5-55-7-777777777----------||
E|-2-2---------5-55------0--2-2------5-555555555----------||#/26t2##/26t1#
                    pm...                 

#27t1#chorus
#27t2#E|------------------------------------------------------------------------||
B|------------------------------------------------------------------------||
G|------------------------------------------------------------------------||
D|-7777777777777777--------------------------------6666666666666666-------||
A|-5555555555555555444444444444444422222222222222224444444444444444-------||
E|-----------------22222222222222220000000000000000-----------------------||#/27t2##/27t1#

#28t1##28t2#E|------------------------------------------------------------------------||
B|------------------------------------------------------------------------||
G|------------------------------------------------------------------------||
D|-7777777777777777--------------------------------6666666666666666-------||
A|-5555555555555555444444444444444422222222222222224444444444444444-------||
E|-----------------22222222222222220000000000000000-----------------------||#/28t2##/28t1#

#29t1#intro 2 riff again
#29t2#E|--------------------------------------------------------||
B|--------------------------------------------------------||
G|----------------------------------2---------------------||
D|-------------2----------2---2h3h4---4-------------------||
A|---4-4-4-4-4-0----0h2h4---4-----------4-2-0-2-----------||
E|-0-2-2-2-2-2----2---------------------------------------||#/29t2##/29t1#
   pm.........                          pm.....

#30t1##30t2#E|--------------------------------------------------------||
B|--------------------------------------------------------||
G|--------------------------------------------------------||
D|-------------2----------4---------6666------------------||
A|---4-4-4-4-4-0----2h3h4-2---------4444------------------||
E|-0-2-2-2-2-2----2---------------------------------------||#/30t2##/30t1#
   pm.........            ^let ring

#31t1##31t2#E|--------------------------------------------------------||
B|--------------------------------------------------------||
G|----------------------------------2---------------------||
D|-------------2----------2---2h3h4---4-------------------||
A|---4-4-4-4-4-0----0h2h4---4-----------4-2-0-2-----------||
E|-0-2-2-2-2-2----2---------------------------------------||#/31t2##/31t1#
   pm.........                          pm.....

#32t1##32t2#E|--------------------------------------------------------||
B|--------------------------------------------------------||
G|--------------------------------------------------------||
D|-------------2----------4---4---4-----------------------||
A|---4-4-4-4-4-0----2h3h4-2-2-2-2-2-2---------------------||
E|-0-2-2-2-2-2----2---------0---0---0---------------------||#/32t2##/32t1#
   pm.........            

#33t1#verse 2
#33t2#E|--------------------------------------------------------||
B|--------------------------------------------------------||
G|--------------------------------------------------------||
D|-------7-77-------44444-------7-77------44444-----------||
A|-4-4---5-55--7-77-222222--4-4-7-55-7-77-222222----------||
E|-2-2---------5-55------0--2-2------5-55------0----------||#/33t2##/33t1#
                    pm...                 pm...

#34t1##34t2#E|--------------------------------------------------------||
B|--------------------------------------------------------||
G|--------------------------------------------------------||
D|-------7-77-------44444-------7-77----------------------||
A|-4-4---5-55--7-77-222222--4-4-5-55-7-777777777----------||
E|-2-2---------5-55------0--2-2------5-555555555----------||#/34t2##/34t1#
                    pm...                 

#35t1#interlude
#35t2#E|--------------------------------------------------------||
B|--------------------------------------------------------||
G|-14141414141414141414141414-11111111111111111111111111--||
D|--x-x-x-x-x-x-x-x-x-x-x-x-x--x-x-x-x-x-x-x-x-x-x-x-x-x--||
A|-12121212121212121212121212--9-9-9-9-9-9-9-9-9-9-9-9-9--||
E|--------------------------------------------------------||#/35t2##/35t1#


#36t1##36t2#E|--------------------------------------------------------||
B|--------------------------------------------------------||
G|-13131313131313131313131313-16161616161613131313131313--||
D|--x-x-x-x-x-x-x-x-x-x-x-x-x--x-x-x-x-x-x-x-x-x-x-x-x-x--||
A|-11111111111111111111111111-14141414141411111111111111--||
E|--------------------------------------------------------||#/36t2##/36t1#

#37t1##37t2#E|--------------------------------------------------------||
B|--------------------------------------------------------||
G|-14141414141414141414141414-11111111111111111111111111--||
D|--x-x-x-x-x-x-x-x-x-x-x-x-x--x-x-x-x-x-x-x-x-x-x-x-x-x--||
A|-12121212121212121212121212--9-9-9-9-9-9-9-9-9-9-9-9-9--||
E|--------------------------------------------------------||#/37t2##/37t1#

#38t1##38t2#E|--------------------------------------------------------||
B|--------------------------------------------------------||
G|-13131313131313131313131313-16161616161613131313131313--||
D|--x-x-x-x-x-x-x-x-x-x-x-x-x--x-x-x-x-x-x-x-x-x-x-x-x-x--||
A|-11111111111111111111111111-14141414141411111111111111--||
E|--------------------------------------------------------||#/38t2##/38t1#

#39t1##39t2#E|--------------------------------------------------------||
B|--------------------------------------------------------||
G|-14141414141416161616161616-----------------------------||
D|--x-x-x-x-x-x-x-x-x-x-x-x-x-----------------------------||
A|-12121212121214141414141414-----------------------------||
E|--------------------------------------------------------||#/39t2##/39t1#

#40t1#interlude 2 (half-speed feeling)
#40t2#E|--------------------------------------------------------||
B|--------------------------------------------------------||
G|--------------------------------------------------------||
D|----------------2---------------------------------------||
A|-4-7-7-4--0-2-4---4-2-0-2--4-7-7-2-------------7--------||
E|-2x5-5-2----------------0--2x5-5-0-----------0-5--------||#/40t2##/40t1#
                                   ^let ring  pm

#41t1##41t2#E|--------------------------------------------------------||
B|--------------------------------------------------------||
G|---------------------------------------------7---7------||
D|---------------------------------------------x---x------||
A|-4-7-7-2--4-4--(bass-only)-4-7-7-2-----------5---5------||
E|-2x5-5-0--2-2--------------2x5-5-0----------x---x-------||#/41t2##/41t1#
                                   ^let ring pm  pm

#42t1##42t2#E|--------------------------------------------------------||
B|--------------------------------------------------------||
G|--------------------------------------------------------||
D|----------------2---------------------------------------||
A|-4-7-7-4--0-2-4---4-2-0-2--4-7-7-2-------------7--------||
E|-2x5-5-2----------------0--2x5-5-0-----------0-5--------||#/42t2##/42t1#
                                   ^let ring  pm

#43t1##43t2#E|--------------------------------------------------------||
B|--------------------------------------------------------||
G|---------------------------------------------7---7------||
D|---------------------------------------------x---x------||
A|-4-7-7-2--4-4--(bass-only)-4-7-7-2-----------5---5------||
E|-2x5-5-0--2-2--------------2x5-5-0----------x---x-------||#/43t2##/43t1#
                                   ^let ring pm  pm


solo (very rough)
guitar 2 plays verse riff
#44t1##44t2#-------------------------------12-14^---14h15p14-12^----
----------------------12h14h15--------------------------
--------14h16p14-12-14----------------------------------
-14/16v-------------------------------------------------
--------------------------------------------------------
--------------------------------------------------------#/44t2##/44t1#


#45t1##45t2#-12h14h12-----------------------------------------------
----------12^-------------------------------------------
--------------14-14-14p12/14----------------------------
--------------------------------------------------------
--------------------------------------------------------
--------------------------------------------------------#/45t2##/45t1#


#46t1##46t2#----------------------------------------------------12--
-14h16p14h17p14h16p14h17p14h16p14h17p14h16p14h17p-------
--------------------------------------------------------
--------------------------------------------------------
--------------------------------------------------------
--------------------------------------------------------#/46t2##/46t1#


#47t1##47t2#-14h16h17p16p14h16h17p16p14h16h17p16p14h16h17p16p14-----
--------------------------------------------------------
--------------------------------------------------------
--------------------------------------------------------
--------------------------------------------------------
--------------------------------------------------------#/47t2##/47t1#


#48t1##48t2#-15-12--------------------------------------------------
-------15-12--------------------------------------------
-------------16^-14h16p14-------------------------------
--------------------------16----------------------------
--------------------------------------------------------
--------------------------------------------------------#/48t2##/48t1#

play interlude 1 twice without last bar
play intro 2
end on: F#5 F#5
Submitted By: Nick
EMail: *


intro:
e-|-------------------------------------------------------------------------
B-|-------------------------------------------------------------------------
G-|-----2---------------------------------------------------2---------------
D-|-2-4---4-2-------------------------------------2---2-3-4---4-3-2---------
A-|-----------4-3-2-0-2------4--4-4-4-4-0-4-2-4-4---4---------------4-2-0---
E-|---------------------0-2--2--2-2-2-2---2---------------------------------

e-|-------------------------------------------------------------------------
B-|-------------------------------------------------------------------------
G-|-----------------------------------------------------------2-------------
D-|-------------------4-6-6-6-----------------------2---2-3-4---4-3-2-------
A-|-4-4-4-4-0-4-0-0-0-2-4-4-4-2---4-4-4-4-0-4-2-4-4---4---------------4-2-0-
E-|-2-2-2-2---2---------------0---2-2-2-2---2-------------------------------

e-|-------------------------------|
B-|-------------------------------|
G-|-------------------------------|
D-|-------------------4---4---4---|
A-|-4-4-4-4-0-4-0-0-0-2-2-2-2-2-2-|
E-|-2-2-2-2---2---------0---0---0-|

verse:
e-|-------------------------------------------------------------------------
B-|-------------------------------------------------------------------------
G-|-------------------------------------------------------------------------
D-|-----7-7-----4-4-------7-7-----4-4-------7-7-----4-4-------7-7-----------
A-|-4-4-5-5-7-7-2-2-2-4-4-5-5-7-7-2-2-2-4-4-5-5-7-7-2-2-2-4-4-5-5-7-7-7-7-7-
E-|-2-2-----5-5-----0-2-2-----5-5-----0-2-2-----5-5-----0-2-2-----5-5-5-5-5-

Chorus:
e-|-------|-----------------------------------------------------------------
B-|-------|-----------------------------------------------------------------
G-|-------|-----------------------------------------------------------------
D-|-------|-7-7-7-7-7-7-7-7---------------------------------6-6-6-6-6-6-6-6-
A-|-7-7-7-|-5-5-5-5-5-5-5-5-4-4-4-4-4-4-4-4-2-2-2-2-2-2-2-2-4-4-4-4-4-4-4-4-
E-|-5-5-5-|-----------------2-2-2-2-2-2-2-2-0-0-0-0-0-0-0-0-----------------

e-|-----------------------------------------------------------------|
B-|-----------------------------------------------------------------|
G-|-----------------------------------------------------------------|
D-|-7-7-7-7-7-7-7-7---------------------------------6-6-6-6-6-6-6-6-|
A-|-5-5-5-5-5-5-5-5-4-4-4-4-4-4-4-4-2-2-2-2-2-2-2-2-4-4-4-4-4-4-4-4-|
E-|-----------------2-2-2-2-2-2-2-2-0-0-0-0-0-0-0-0-----------------|

second/third chorus:
e-|-------------------------------------------------------------------------
B-|-------------------------------------------------------------------------
G-|-14-14-14-14-14-14-14-14-11-11-11-11-11-11-11-11-13-13-13-13-13-13-13-13-
D-|-xx-xx-xx-xx-xx-xx-xx-xx--x--x--x--x--x--x--x--x-xx-xx-xx-xx-xx-xx-xx-xx-
A-|-12-12-12-12-12-12-12-12--9--9--9--9--9--9--9--9-11-11-11-11-11-11-11-11-
E-|-------------------------------------------------------------------------

e-|-------------------------------------------------------------------------
B-|-------------------------------------------------------------------------
G-|-16-16-16-16-13-13-13-13-14-14-14-14-14-14-14-14-11-11-11-11-11-11-11-11-
D-|-xx-xx-xx-xx-xx-xx-xx-xx-xx-xx-xx-xx-xx-xx-xx-xx--x--x--x--x--x--x--x--x-
A-|-14-14-14-14-11-11-11-11-12-12-12-12-12-12-12-12--9--9--9--9--9--9--9--9-
E-|-------------------------------------------------------------------------

e-|-------------------------------------------------|-----------------------|
B-|-------------------------------------------------|-----------------------|
G-|-13-13-13-13-13-13-13-13-16-16-16-16-13-13-13-13-|14-14-14-14-16-16-16-16|
D-|-xx-xx-xx-xx-xx-xx-xx-xx-xx-xx-xx-xx-xx-xx-xx-xx-|xx-xx-xx-xx-xx-xx-xx-xx|
A-|-11-11-11-11-11-11-11-11-14-14-14-14-11-11-11-11-|12-12-12-12-14-14-14-14|
E-|-------------------------------------------------|-----------------------|

bridge:
e-|----------------------------------------------------------|
B-|----------------------------------------------------------|
G-|------------------------------------------------------7-7-|
D-|---2-2-------2----------2-2---2----2-2----------2-2---x-x-|
A-|-4-0-0-4-2-4---4-2----4-0-0-4-0--4-0-0-2-4-4--4-0-0-2-5-5-|
E-|-2-----2-----------0--2-----2----2-----0-2-2--2-----0-----|
===========


Submitted By: hardcore junk
EMail: *


#49t1#INTRO: 
F# A 
#49t2#---------------------------------------------------------------- 
---------------------------------------------------------------- 
----2----------------------------------------------------------- 
2-4-------4-----2-----------------------------------4----------- 
----------------------4-----3---2---0-----2---------4----------- 
------------------------------------------------0---2----------- #/49t2##/49t1#

#50t1#F# Do the "wroom" with your pick 
#50t2#-------------------------------- 
-------------------------------- 
-------------------------------- 
4------------------------------- 
4------------------------------- 
2------------------------------- #/50t2##/50t1#

#51t1#MAIN RIFF: 
F# 
#51t2#---------------------------------------------------------------- 
---------------------------------------------------------------- 
----------------------------------------------2----------------- 
------------------------------2---------2/4-x-------4----------- 
--------------0---------0/2/4-------4-------------------420/4- 
0-2-2-2-2-2-2-------2------------------------------------------- #/51t2##/51t1#

#52t1#F# B C# 
#52t2#---------------------------------------------------------------- 
---------------------------------------------------------------- 
------------------------------4-----------------6-6-6-6-x------- 
------------------------------4-----------------6-6-6-6-x------- 
--------------0---------0/2---2-----------------4-4-4-4-x------- 
0-2-2-2-2-2-2-------2---------------------------------------0~~~ #/52t2##/52t1#

#53t1#F# 
#53t2#---------------------------------------------------------------- 
---------------------------------------------------------------- 
----------------------------------------------2----------------- 
------------------------------2---------2/4-x-------4----------- 
--------------0---------0/2/4-------4-------------------420/4- 
0-2-2-2-2-2-2-------2------------------------------------------- #/53t2##/53t1#

#54t1#F# 
#54t2#------------------------------ 
------------------------------ 
------------------------------ 
------------------------------ 
--------------0---------0/2--- 
0-2-2-2-2-2-2-------2--------- #/54t2##/54t1#

#55t1#B E B E B E 
#55t2#---------------------------------------------------------------- 
---------------------------------------------------------------- 
4-----------------------4-----------------------4--------------- 
4-----------2-----------4-----------2-----------4-------2------- 
2-----------2-----------2-----------2-----------2-------2------- 
------------0-----------------------0-------------------0------- #/55t2##/55t1#

#56t1#VERSE 1 PART 1: 
F# D A B E 
#56t2#---------------------------------------------------------------- 
---------------------------------------------------------------- 
------------7-------7-------2-------2-----------4--------------- 
4---4-------7-------7-------2-------2-----------4-x-x-x-x------- 
4---4-------5-------5-------0-------0-----------2-2-2-2-2-2----- 
2---2-----------------------------------------------------0----- #/56t2##/56t1#

#57t1#F# D A B E 
#57t2#---------------------------------------------------------------- 
---------------------------------------------------------------- 
------------7-------7-------2-------2--------------------------- 
4---4-------7-------7-------2-------2-----------x---x---x------- 
4---4-------5-------5-------0-------0-----------2---2---2-2----- 
2---2-----------------------------------------------------0----- #/57t2##/57t1#

#58t1#F# D A B E 
#58t2#---------------------------------------------------------------- 
---------------------------------------------------------------- 
------------7-------7-------2-------2-----------4--------------- 
4---4-------7-------7-------2-------2-----------4-x-x-x-x------- 
4---4-------5-------5-------0-------0-----------2-2-2-2-2-2----- 
2---2-----------------------------------------------------0----- #/58t2##/58t1#

#59t1#F# D A 
#59t2#---------------------------------------------------------------- 
---------------------------------------------------------------- 
------------7-------7-------2-------2---2-------2-------2---2--- 
4---4-------7-------7-------2-------2---2-------2-------2---2--- 
4---4-------5-------5-------0-------0---0-------0-------0---0--- 
2---2----------------------------------------------------------- #/59t2##/59t1#

#60t1#VERSE 1 PART 2 (play both lines two times): 
D F# 
#60t2#---------------------------------------------------------------- 
---------------------------------------------------------------- 
7---7-------7---7---7-------7----------------------------------- 
7---7-------7---7---7-------7---4---4-------4---4---4-------4--- 
5---5-------5---5---5-------5---4---4-------4---4---4-------4--- 
--------------------------------2---2-------2---2---2-------2--- #/60t2##/60t1#

#61t1#E C# 
#61t2#---------------------------------------------------------------- 
---------------------------------------------------------------- 
--------------------------------6---6-------6---6---6---6---6--- 
2---2-------2---2---2---2---2---6---6-------6---6---6---6---6--- 
2---2-------2---2---2---2---2---4---4-------4---4---4---4---4--- 
0---0-------0---0---0---0---0----------------------------------- #/61t2##/61t1#

MAIN RIFF. 
VERSE 2 like VERSE 1, both parts. In the latter-one a second guitar 
plays a quint for the chord, but don't let it bother. I wont! 

SOMETHING (all four lines two times): 

#62t1#F# A F# E 
#62t2#---------------------------------------------------------------- 
---------------------------------------------------------------- 
---------------------------------------------------------------- 
4-------4-------2-----2-----4-----------x---------2-------2----- 
4-------4-------0-----0-----4-----------x---2/3/4---4-3-2-2----- 
2-------2---0-2-------------2-----------x-----------------0----- #/62t2##/62t1#

#63t1#F# A E A 
#63t2#---------------------------------------------------------------- 
---------------------------------------------------------------- 
------------------------------------------------------------2--- 
4-------4-------2-----2-----2-----------------------------x-2--- 
4-------4-------0-----0-----2-----------------------------x-0--- 
2-------2---0-2-------------0-----------------------------x----- #/63t2##/63t1#

#64t1#F# A E F# 
#64t2#---------------------------------------------------------------- 
---------------------------------------------------------------- 
---------------------------------------------------------------- 
4-------4-------2-----2-----2-------4---4---x------------------- 
4-------4-------0-----0-----2-------4---4---x------------------- 
2-------2---0-2-------------0-------2---2---x------------------- #/64t2##/64t1#

#65t1#F# A E D D7 
#65t2#---------------------------------------------------------------- 
---------------------------------------------------------------- 
------------------------------------------------x-7-----x-7----- 
4-------4-------2-----2-----2-------------------x-7-----x-7----- 
4-------4-------0-----0-----2-------------------x-5-----x-4----- 
2-------2---0-2-------------0----------------------------------- #/65t2##/65t1#

SOLO chords as VERSE 1 PART 1. 

VERSE 1 PART 2 two times the whole stuff, wich equales four times 
the two lines. 

MAIN RIFF.
Submitted By: Parker
EMail: *


INTRO:

#66t1#     F#                              A
#66t2# ----------------------------------------------------------------
 ----------------------------------------------------------------
 ----2-----------------------------------------------------------
 2-4-------4-----2-----------------------------------4-----------
 ----------------------4-----3---2---0-----2---------4-----------
 ------------------------------------------------0---2-----------#/66t2##/66t1#


#67t1# F#        Do the "wroom" with your pick
#67t2# --------------------------------
 --------------------------------
 --------------------------------
 4-------------------------------
 4-------------------------------
 2------------------------------- MAIN RIFF:#/67t2##/67t1#

#68t1# F#
#68t2# ----------------------------------------------------------------
 ----------------------------------------------------------------
 ----------------------------------------------2-----------------
 ------------------------------2---------2/4-x-------4-----------
 --------------0---------0/2/4-------4-------------------420/4-
 0-2-2-2-2-2-2-------2-------------------------------------------#/68t2##/68t1#


#69t1# F#                            B                 C#
#69t2# ----------------------------------------------------------------
 ----------------------------------------------------------------
 ------------------------------4-----------------6-6-6-6-x-------
 ------------------------------4-----------------6-6-6-6-x-------
 --------------0---------0/2---2-----------------4-4-4-4-x-------
 0-2-2-2-2-2-2-------2---------------------------------------0~~~#/69t2##/69t1#


#70t1# F#
#70t2# ----------------------------------------------------------------
 ----------------------------------------------------------------
 ----------------------------------------------2-----------------
 ------------------------------2---------2/4-x-------4-----------
 --------------0---------0/2/4-------4-------------------420/4-
 0-2-2-2-2-2-2-------2-------------------------------------------#/70t2##/70t1#


#71t1# F#                           
#71t2# ------------------------------
 ------------------------------
 ------------------------------
 ------------------------------
 --------------0---------0/2---
 0-2-2-2-2-2-2-------2---------#/71t2##/71t1#


#72t1# B               E       B           E           B       E
#72t2# ----------------------------------------------------------------
 ----------------------------------------------------------------
 4-----------------------4-----------------------4---------------
 4-----------2-----------4-----------2-----------4-------2-------
 2-----------2-----------2-----------2-----------2-------2-------
 ------------0-----------------------0-------------------0------- VERSE 1 PART 1:#/72t2##/72t1#

#73t1# F#          D               A                   B         E
#73t2# ----------------------------------------------------------------
 ----------------------------------------------------------------
 ------------7-------7-------2-------2-----------4---------------
 4---4-------7-------7-------2-------2-----------4-x-x-x-x-------
 4---4-------5-------5-------0-------0-----------2-2-2-2-2-2-----
 2---2-----------------------------------------------------0-----#/73t2##/73t1#


#74t1# F#          D               A                   B         E
#74t2# ----------------------------------------------------------------
 ----------------------------------------------------------------
 ------------7-------7-------2-------2---------------------------
 4---4-------7-------7-------2-------2-----------x---x---x-------
 4---4-------5-------5-------0-------0-----------2---2---2-2-----
 2---2-----------------------------------------------------0-----#/74t2##/74t1#


#75t1# F#          D               A                   B         E
#75t2# ----------------------------------------------------------------
 ----------------------------------------------------------------
 ------------7-------7-------2-------2-----------4---------------
 4---4-------7-------7-------2-------2-----------4-x-x-x-x-------
 4---4-------5-------5-------0-------0-----------2-2-2-2-2-2-----
 2---2-----------------------------------------------------0-----#/75t2##/75t1#


#76t1# F#          D               A  
#76t2# ----------------------------------------------------------------
 ----------------------------------------------------------------
 ------------7-------7-------2-------2---2-------2-------2---2---
 4---4-------7-------7-------2-------2---2-------2-------2---2---
 4---4-------5-------5-------0-------0---0-------0-------0---0---
 2---2----------------------------------------------------------- VERSE 1 PART 2 (play both lines two times):#/76t2##/76t1#

#77t1# D                               F#
#77t2# ----------------------------------------------------------------
 ----------------------------------------------------------------
 7---7-------7---7---7-------7-----------------------------------
 7---7-------7---7---7-------7---4---4-------4---4---4-------4---
 5---5-------5---5---5-------5---4---4-------4---4---4-------4---
 --------------------------------2---2-------2---2---2-------2---#/77t2##/77t1#


#78t1# E                               C#
#78t2# ----------------------------------------------------------------
 ----------------------------------------------------------------
 --------------------------------6---6-------6---6---6---6---6---
 2---2-------2---2---2---2---2---6---6-------6---6---6---6---6---
 2---2-------2---2---2---2---2---4---4-------4---4---4---4---4---
 0---0-------0---0---0---0---0----------------------------------- MAIN RIFF.#/78t2##/78t1#


 VERSE 2  like VERSE 1, both parts. In the latter-one a second guitar
          plays a quint for the chord, but don't let it bother. I wont!


 SOMETHING (all four lines two times):

#79t1# F#              A               F#                      E
#79t2# ----------------------------------------------------------------
 ----------------------------------------------------------------
 ----------------------------------------------------------------
 4-------4-------2-----2-----4-----------x---------2-------2-----
 4-------4-------0-----0-----4-----------x---2/3/4---4-3-2-2-----
 2-------2---0-2-------------2-----------x-----------------0-----#/79t2##/79t1#


#80t1# F#              A               E                       A
#80t2# ----------------------------------------------------------------
 ----------------------------------------------------------------
 ------------------------------------------------------------2---
 4-------4-------2-----2-----2-----------------------------x-2---
 4-------4-------0-----0-----2-----------------------------x-0---
 2-------2---0-2-------------0-----------------------------x-----#/80t2##/80t1#


#81t1# F#              A               E       F#
#81t2# ----------------------------------------------------------------
 ----------------------------------------------------------------
 ----------------------------------------------------------------
 4-------4-------2-----2-----2-------4---4---x-------------------
 4-------4-------0-----0-----2-------4---4---x-------------------
 2-------2---0-2-------------0-------2---2---x-------------------#/81t2##/81t1#


#82t1# F#              A               E               D       D7
#82t2# ----------------------------------------------------------------
 ----------------------------------------------------------------
 ------------------------------------------------x-7-----x-7-----
 4-------4-------2-----2-----2-------------------x-7-----x-7-----
 4-------4-------0-----0-----2-------------------x-5-----x-4-----
 2-------2---0-2-------------0----------------------------------- SOLO  chords as VERSE 1 PART 1. VERSE 1 PART 2  two times the whole stuff, wich equales four times#/82t2##/82t1#
                 the two lines. MAIN RIFF.
Composição: Colaboração e revisão: