Eat Your Words

Lagwagon

Tom: G
Email:*

Tuning:standard
Intro
played quietly:

     clean guitar
               Wait  for Us    become-con-
#1t1##1t2#e|-------------------------------------|
B|---3----0----1-----3----1--------1--3|
G|-------------0-----0----0------------|
D|-------------------------------------|
A|---0----2----------------------------|
E|-------------------------------------|#/1t2##/1t1#

#2t1#    tent  in the back  of the  bus          guilty
#2t2#e|------------------------------------------------|
B|--------1-------3-------1----1---0--0-----1-3---|
G|------2-------4-------2------0---0--2-----0-0---|
D|----3-------5-------3---------------------------|
A|------------------------------------------------|
E|------------------------------------------------|#/2t2##/2t1#

      of the time you spent     serving  someone left to give you up  
   
#3t1##3t2#e|-------------------------------3/5\3------------------------|
B|----------1--------------------3/5\3-------5-------------1--|
G|-------2---2---------4-------------------5---------4-----2--|
D|----3-------3---5----------------------5---------5-------3--|
A|-------------------------------------3---------5------------|
E|---------------------------------------------3--------------|#/3t2##/3t1#

but you're not           laboring

#4t1##4t2#e|---------------------------|
B|-----------3-----------1-3-|
G|-----------2---------------|
D|-----------3---------------|
A|---------------------------|
E|---------------------------|#/4t2##/4t1#

the thought of something incomplete         no one 

#5t1##5t2#e|------------------------------------------------|
B|--------1-------3-------1----1---0--0-----3-1---|
G|------2-------4-------2------0---0--2-----0-0---|
D|----3-------5-------3---------------------------|
A|------------------------------------------------|
E|------------------------------------------------|#/5t2##/5t1#

      lives exception to this passing grief

#6t1##6t2#e|-------------------------------3/5\3-|
B|----------1--------------------3/5\3-|
G|-------2---2---------4---------------|
D|----3-------3---5--------------------|
A|-------------------------------------|
E|-------------------------------------|#/6t2##/6t1#


#7t1#                                        Unstill-o in  your voice
#7t2#e|--------------------------------------------------|
B|--------------------------------------------------|
G|--------------------------------------------------|
D|----------------------------------2-2-2-2-2-2-2-2-|
A|--3-3-3-3-3-3-3-3-2-2-2-2-2-2-2-2-0-0-0-0-0-0-0-0-|
E|--1-1-1-1-1-1-1-1-0-0-0-0-0-0-0-0-----------------|#/7t2##/7t1#

#8t1#    agrees              bleeding
#8t2#e|-----------------------------------|
B|-----------------------------------|
G|-----------------------------------|
D|------------------------------5-5-5|
A|--2-2-2-2-2-2-3-3-3-3-3-3-3-3-5-5-5|
E|--0-0-0-0-0-0-1-1-1-1-1-1-1-1-3-3-3|#/8t2##/8t1#


refrain:

                      1) Julie             You can't Lie to Me honest-
                      2) seconds           with a grain of hope  on two 
#9t1##9t2#e|----------------------------------------------------------------|
B|-------------5------------3--5-6--5-3-5--3--5-------------------|
G|--------------------------5--5-5--5-5-5--5--5-------------------|
D|--5-5-5-5---------5-------3-----------------------3-------------|
A|--3-3-3-3-----------------3-----------------------3-------------|
E|--------------------------------------------------1-------------|#/9t2##/9t1#

  1)-ly
  2) thirds
#10t1##10t2#e|-------------------------------------|
B|-------------------------------------|
G|-5---5-5-9---9-----------------------|
D|-5---5-5-9---9-7--7-----5--5---5-5-5-|
A|-3---3-3-7---7-7--7-----5--5---5-5-5-|
E|---------------5--5-----3--3---3-3-3-|#/10t2##/10t1#

#11t1##11t2#e|----------------------------------------------------------------|
B|-------------5------------3--5-6--5-3-5--3--5-------------------|
G|--------------------------5--5-5--5-5-5--5--5-------------------|
D|--5-5-5-5---------5-------3-----------------------3-------------|
A|--3-3-3-3-----------------3-----------------------3-------------|
E|--------------------------------------------------1-------------|#/11t2##/11t1#

 1)tend       to digest them
 
#12t1##12t2#e|-3---------------------------------|
B|-5----------------5----------------|
G|-5----------------5-4--------------|
D|-5----------------5-5--------------|
A|-3----------------3-5--------------|
E|--------------------3--------------|let ring(first time continue to second verse)#/12t2##/12t1#

#13t1# 2)and  your Words and you will fast disa-
#13t2#e|-3-------------------------------------|
B|-5-------------------------------------|
G|-5---------9-----9---7---5----4-----4--|
D|-5---------x-----x---x---x----5-----5--|
A|-3---------7-----7---5---3----5-----5--|
E|------------------------------3-----3--|#/13t2##/13t1#


ppear
 guitar interlude:
guitar 1:
#14t1##14t2#e|---------------------------------|
B|---------------------------------|
G|---------------------------------|
D|---------------------------------|
A|--4-4-4-4-4-4-4-4-2-2-2-2-2-2-2-2|
E|---------------------------------|#/14t2##/14t1#

#15t1#guitar 1:
#15t2#e|---------------------------------|
B|---------------------------------|
G|---------------------------------|
D|---------------------------------|
A|--4-4-4-4-4-4-4-4-4-4-4-4-4-4-4-4|
E|---------------------------------|#/15t2##/15t1#


guitar 2 enters here:
phrase 1:
guitar 1:
#16t1##16t2#e|---------------------------------|
B|---------------------------------|
G|---------------------------------|
D|---------------------------------|
A|--3-3-3-3-3-3-3-3-2-2-2-2-2-2-2-3|
E|---------------------------------|x2#/16t2##/16t1#
    
#17t1#guitar 2:
#17t2#e|---------------------------------|
B|--1---------------0-------------1|
G|--0---------------0--------------|
D|---------------------------------|
A|---------------------------------|
E|---------------------------------|x2#/17t2##/17t1#

phrase 2:

#18t1#guitar 1:
#18t2#e|---------------------------------|
B|---------------------------------|
G|---------------------------------|
D|---------------------------------|
A|--3-3-3-3-3-3-3-3-2-2-2-2-2-2-2-3|
E|---------------------------------|#/18t2##/18t1#

#19t1#guitar 2:
#19t2#e|---------------------------------|
B|--1---------------0-------------0|
G|--0---------------0-------------0|
D|---------------------------------|
A|---------------------------------|
E|---------------------------------|#/19t2##/19t1#


phrase 3:
guitar 1:
#20t1##20t2#e|---------------------------------|
B|---------------------------------|
G|---------------------------------|
D|---------------------------------|
A|--0-0-0-0-0-0-0-0-0-0-0-0-------2|
E|--------------------------5-3-5--|#/20t2##/20t1#

#21t1#guitar 2:
#21t2#e|---------------------------------|
B|-(0)--------------1--------------|
G|-(0)--------------0--------------|
D|---------------------------------|
A|---------------------------------|
E|---------------------------------|#/21t2##/21t1#


phrase 4:
guitar 1:
#22t1##22t2#e|---------------------------------|
B|---------------------------------|
G|---------------------------------|
D|---------------------------------|
A|--3-3-3-3-3-3-3-3-2-2-2-2-2-2-2-3|
E|---------------------------------|#/22t2##/22t1#

#23t1#guitar 2:
#23t2#e|---------------------------------|
B|--1-------0---1---0-------------1|
G|--0-------0---0---0-------------0|
D|---------------------------------|
A|---------------------------------|
E|---------------------------------|#/23t2##/23t1#

phrase 5:
guitar 1:
#24t1##24t2#e|---------------------------------|
B|---------------------------------|
G|---------------------------------|
D|---------------------------------|
A|--3-3-3-3-3-3-3-3-2-2-2-2-2-2-2-3|
E|---------------------------------|#/24t2##/24t1#

#25t1#guitar 2:
#25t2#e|--------------------------------0|
B|--1---------------0---------0-1-1|
G|--0---------------0-------------2|
D|--------------------------------3|
A|---------------------------------|
E|---------------------------------|#/25t2##/25t1#

#26t1##26t2#e|--0-0-0-0-0-0|
B|--1-1-1-1-1-1|
G|--2-2-2-2-2-2|
D|--3-3-3-3-3-3|
A|-------------|w/ overdrive
E|-------------|go to ending#/26t2##/26t1#


Verse 2:
            there's always someone you can bore

#27t1##27t2#e|----------------------------------|
B|----------------------------------|
G|----------------------------------|
D|--3-3-3-3-3-3-3-3-5-5-5-5-5-5-5-5-|
A|--3-3-3-3-3-3-3-3-5-5-5-5-5-5-5-5-|
E|--1-1-1-1-1-1-1-1-3-3-3-3-3-3-3-3-|#/27t2##/27t1#

#28t1##28t2#e|------------------------------------|
B|------------------------------------|
G|------------------7-7-/9--9---------|
D|--7-7-7-7-7-7-7-7-x-x--x--x---------|
A|--7-7-7-7-7-7-7-7-5-5-/7--7---------|
E|--5-5-5-5-5-5-5-5-------------------|#/28t2##/28t1#

#29t1#           i always listen to ac-
#29t2#e|----------------------------------|
B|----------------------------------|
G|----------------------------------|
D|--3-3-3-3-3-3-3-3-5-5-5-5-5-5-5-5-|
A|--3-3-3-3-3-3-3-3-5-5-5-5-5-5-5-5-|
E|--1-1-1-1-1-1-1-1-3-3-3-3-3-3-3-3-|#/29t2##/29t1#

#30t1#    cents             wasting
#30t2#e|------------------------------------|
B|------------------------------------|
G|------------------7-7-\5--5---------|
D|--7-7-7-7-7-7-7-7-x-x--x--x---------|
A|--7-7-7-7-7-7-7-7-5-5-\3--3---------|
E|--5-5-5-5-5-5-5-5-------------------|#/30t2##/30t1#


#31t1#time while timing is wasting you and  
#31t2#e|----------------------------------|
B|----------------------------------|
G|----------------------------------|
D|--3-3-3-3-3-3-3-3-5-5-5-5-5-5-5-5-|
A|--3-3-3-3-3-3-3-3-5-5-5-5-5-5-5-5-|
E|--1-1-1-1-1-1-1-1-3-3-3-3-3-3-3-3-|#/31t2##/31t1#

#32t1#            I never left i just shut down   
#32t2#e|-----------------------------------|
B|-----------------------------------|
G|--5-5-5-5-5-5-5-5-4-4-4-4-4-4-4-4--|
D|--5-5-5-5-5-5-5-5-x-x-x-x-x-x-x-x--|
A|--3-3-3-3-3-3-3-3-2-2-2-2-2-2-2-2--|
E|-----------------------------------|#/32t2##/32t1#

#33t1#          Still i can
#33t2#e|---------------------------|
B|---------------------------|
G|------------------7-7-/9--9|
D|--7-7-7-7-7-7-7-7-x-x--x--x|
A|--7-7-7-7-7-7-7-7-5-5-/7--7|
E|--5-5-5-5-5-5-5-5----------|#/33t2##/33t1#


       hear it from your mouth...                              counting

#34t1##34t2#e|-----------------------------------------------------------------|
B|-----------------------------------------------------------------|
G|-9-9-9-9-9-9-9-9--10-10-10-10-10-10-10-10-10-10-10-10-10---------|
D|-x-x-x-x-x-x-x-x--x--x--x--x--x--x--x--x--x--x--x--x--x----5-5-5-|
A|-7-7-7-7-7-7-7-7--8--8--8--8--8--8--8--8--8--8--8--8--8----5-5-5-|
E|-----------------------------------------------------------3-3-3-|to refrain#/34t2##/34t1#


ending:
guitar 1:
#35t1##35t2#e|----------------------------------|
B|----------------------------------|
G|----------------------------------|
D|--3-3-3-3-3-3-3-3-5-5-5-5-5-5-5-5-|
A|--3-3-3-3-3-3-3-3-5-5-5-5-5-5-5-5-|
E|--1-1-1-1-1-1-1-1-3-3-3-3-3-3-3-3-|#/35t2##/35t1#

#36t1##36t2#e|------------------------------------|
B|------------------------------------|
G|------------------7-7-/9--9---------|
D|--7-7-7-7-7-7-7-7-x-x--x--x---------|
A|--7-7-7-7-7-7-7-7-5-5-/7--7---------|
E|--5-5-5-5-5-5-5-5-------------------|#/36t2##/36t1#

#37t1##37t2#e|----------------------------------|
B|----------------------------------|
G|----------------------------------|
D|--3-3-3-3-3-3-3-3-5-5-5-5-5-5-5-5-|
A|--3-3-3-3-3-3-3-3-5-5-5-5-5-5-5-5-|
E|--1-1-1-1-1-1-1-1-3-3-3-3-3-3-3-3-|#/37t2##/37t1#

#38t1##38t2#e|------------------------------------|
B|------------------------------------|
G|------------------7-7-\5--5---------|
D|--7-7-7-7-7-7-7-7-x-x--x--x---------|
A|--7-7-7-7-7-7-7-7-5-5-\3--3---------|
E|--5-5-5-5-5-5-5-5-------------------|x2#/38t2##/38t1#

then play this
guitar 1:
#39t1##39t2#e|----------------------------------|
B|----------------------------------|
G|----------------------------------|
D|--3-3-3-3-3-3-3-3-5-5-5-5-5-5-5-5-|
A|--3-3-3-3-3-3-3-3-5-5-5-5-5-5-5-5-|
E|--1-1-1-1-1-1-1-1-3-3-3-3-3-3-3-3-|#/39t2##/39t1#

#40t1#guitar 2:
#40t2#e|----------------------------------|
B|----------------------------------|
G|-9----------------7---------------|
D|-x----------------x---------------|
A|-7----------------5---------------|
E|----------------------------------|#/40t2##/40t1#




#41t1#guitar 1:
#41t2#e|----------------------------------|
B|----------------------------------|
G|----------------------------------|
D|--7-7-7-7-7-7-7-7-7-7-7-7-7-7-7-7-|
A|--7-7-7-7-7-7-7-7-7-7-7-7-7-7-7-7-|
E|--5-5-5-5-5-5-5-5-5-5-5-5-5-5-5-5-|#/41t2##/41t1#

#42t1#guitar 2:           
#42t2#e|----------------------------------|
B|----------------------------------|
G|-5----------------5--4----4--4---4|
D|-x----------------x--x----x--x---x|
A|-3----------------3--2----2--2---2|
E|----------------------------------|#/42t2##/42t1#




then play this:
guitar 1:
#43t1##43t2#e|----------------------------------|
B|----------------------------------|
G|----------------------------------|
D|--3-3-3-3-3-3-3-3-5-5-5-5-5-5-5-5-|
A|--3-3-3-3-3-3-3-3-5-5-5-5-5-5-5-5-|
E|--1-1-1-1-1-1-1-1-3-3-3-3-3-3-3-3-|#/43t2##/43t1#

#44t1#guitar 2:
#44t2#e|----------------------------------|
B|----------------------------------|
G|-10-10-10-10-10-10-9----9--9--9--9|
D|-x--x--x--x--x--x--x----x--x--x--x|
A|-8--8--8--8--8--8--7----7--7--7--7|
E|----------------------------------|#/44t2##/44t1#



#45t1#guitar 1:
#45t2#e|----------------------------------|
B|----------------------------------|
G|----------------------------------|
D|--7-7-7-7-7-7-7-7-7-7-7-7-7-7-7-7-|
A|--7-7-7-7-7-7-7-7-7-7-7-7-7-7-7-7-|
E|--5-5-5-5-5-5-5-5-5-5-5-5-5-5-5-5-|#/45t2##/45t1#


guitar 2:

#46t1##46t2#e|----------------------------------|
B|----------------------------------|
G|----------------------------------|
D|--7-----7-7-7-7-7-----7-7-7-7-7-7-|
A|--x-----x-x-x-x-x-----x-x-x-x-x-x-|
E|--5-----5-5-5-5-5-----5-5-5-5-5-5-|repeat and fade out#/46t2##/46t1#
| /  slide up
| \  slide down
| h  hammer-on
| p  pull-off
| ~  vibrato
| +  harmonic
| x  Mute note
=========================================================================
Composição: Colaboração e revisão: