Good Bye

Lagwagon

Tom: G
#1t1#Intro
#1t2#e|---------------------------------------------------------------------------|
B|---------------------------------------------------------------------------|
G|-7-7-7--5-5-5-5--7---5-----------------------------------------------------|
D|-7-7-7--5-5-5-5--7---5---3-------------------------------------------------|
A|-5-5-5--3-3-3-3--5---3---3-------------------------------------------------|
E|-------------------------1-------------------------------------------------|#/1t2##/1t1#

#2t1#Verse
#2t2#e|----"i can see what's meant to be....."------------------------------------|
B|---------------------------------------------------------------------------|
G|--3---------------------3-----------------------3-----------6---------pm^^^|
D|--3----------3----------3-----------3-----------3-----------6---------3----|
A|--1----------3----------1-----------3-----------1-----------4---------3----|
E|-------------1----------------------1---------------------------------1----|#/2t2##/2t1#

#3t1##3t2#e|-"the time we wasted.........on a couch..."-----------"...they're all lying"
B|---------------------------------------------------------------------------|
G|------------------------------3-----5-----------7-----3------5------------7|
D|------------------------------3-----5-----7-----7-----3------5------7-----7|
A|------------------------------1-----3-----7-----5-----1------3------7-----5|
E|-----------33--55-------------------------5-------------------------5------|#/3t2##/3t1#


#4t1##4t2#e|-"there's no proof..."-------------"...i wanna thank you"----------"goodbye"
B|---------------------------------------------------------------------------|
G|-3------------5------------------7--------------6--------3--------5--------|
D|-3------------5--------7---------7--------------6--------3--------5-------3|
A|-1------------3--------7---------5--------------4--------1--------3-------3|
E|-----------------------5--------------------------------------------------1|#/4t2##/4t1#

Bridge riff same as verse riff

#5t1#Solo
#5t2#e|---------------------------------------------------------------------------|
B|--------9-10-12-14-10--------------9-10-12-14------------------------------|
G|--10-10----------------------10-10-----------------------------------------|
D|---------------------------------------------------------------------------|
A|---------------------------------------------------------------------------|
E|---------------------------------------------------------------------------|#/5t2##/5t1#

Repeat chorus

#6t1#Outro
#6t2#e|-"...for all the pains of goodbye"-----------------------------------------|
B|-------------------------------------------------(4x)----------------------|
G|------------------------------------2----3----5--------end on--------------|
D|------------------------------3-----2----3----5----------3-----------------|
A|------------------------------3-----0----1----3----------3-----------------|
E|------------------------------1--------------------------1-----------------|#/6t2##/6t1#
Composição: Antonio Buglione / Fat Mike / Gerald V. Casale / Ian McCulloch / Joey Cape / Lagwagon / Les Pattinson / Mark Mothersbaugh / Pete de Freitas / Will SergeantColaboração e revisão: