Gun In Your Head

Lagwagon

Tom: G
10/12/98

#1t1#S1:
#1t2#-----------------------------------------------------------------------------#/1t2##/1t1#

Tabbed By: Mark Norris (*)

Intro (Both Guitars)
**Only the chords are shown, work out strumming yourself**

#2t1##2t2#|------------------------------------------------------------|
|------------------------------------------------------------|
|------------------------------------------------------------|
|-4-2-0--7---------------------------------------------------|
|--------5--7--9---------------------------------------------|
|-----------5--7---------------------------------------------|#/2t2##/2t1#


Verse (Both Guitars-**Only chord progression is shown**)

#3t1#                        "You might survive..."
#3t2#|------------------|-----------------------------------------------------|
|------------------|-----------------------------------------------------|
|----7-----6-------|-------7--4------------------------------------------|
|-5--x--7--x--(x2)-|-5--7--7--4--4-2-0 (then back into the first part#/3t2##/3t1#
#4t1#of-|
#4t2#|-5--5--7--4-------|-5--7--5--2---------the#/4t2##/4t1#
#5t1#verse)-----------------------|
#5t2#|-3-----5----------|-3--5------------------------------------------------|#/5t2##/5t1#


 
Guitar One ("A wealth of respect..."-**Only chord progression is
shown**)
#6t1##6t2#|----------------------------------|
|----------------------------------|
|----6--9-7--11--12--9-------------|
|-5--x--x-x---x---x--x---7---7---9-|
|-5--4--7-5---9--10--7---7---7---9-|
|-3----------------------5---5---7-|#/6t2##/6t1#
                            p.m

Guitar Two ("A wealth of respect..."-**Only chord progression is
shown**)
#7t1##7t2#|---------------------------------|
|---------------------------------|
|---------------------------------|
|-5--7--9--12--14--10---7---7---9-|
|-5--7--9--12--14--10---7---7---9-|
|-3--5--7--10--12---8---5---5---7-|#/7t2##/7t1#
                           p.m

THEN BACK INTO THE MAIN VERSE

Middle Section (Both Guitars)

#8t1##8t2#|--------------------------------------------------------------------------
|--------------------------------------------------------------------------
|--------------------------------------------------------------------------
|-5-5----------7-7--------4--2-2--2-2-2---4-4--4-2-0------5-5----------7-7-
|-5-5--4-5-7---7-7--7-5-4----0-0--0-0-0---2-2---------4---5-5--4-5-7---7-7-
|-3-3----------5-5----------------------------------------3-3----------5-5-#/8t2##/8t1#
       p.m          p.m                            p.m         p.m

#9t1##9t2#|--------------------------------------------------------------------------
|--------------------------------------------------------------------------
|--------------------------------------------------------9-8-7-------------
|-------4--2-2--2-2-2---4-4--4-2-0-----5-5----------7-7--x-x-x---7-7-7-7-7-
|-7-5-4----0-0--0-0-0---2-2--------4---5-5--4-5-7---7-7--7-6-5---7-7-7-7-7-
|--------------------------------------3-3----------5-5----------5-5-5-5-5-#/9t2##/9t1#
  p.m (work out all the rest yourself, it's easy)

#10t1##10t2#|-----------------------------------------------------------------|
|-----------------------------------------------------------------|
|-----------------------------------------------------------------|
|-4-4--4-2-0----9-9-9-9-9-------------7-7-7-7-7-7-7-7-7-7-7-7-7-7-|
|-2-2--------4--7-7-7-7-7--3-3-3-3-3--7-7-7-7-7-7-7-7-7-7-7-7-7-7-|
|--------------------------3-3-3-3-3--5-5-5-5-5-5-5-5-5-5-5-5-5-5-|#/10t2##/10t1#
                                      p.m (work it out)

Bridge ("It only breaks you until..") **Only chord progression is
shown**
Both Guitars
#11t1##11t2#|---------------------|
|---------------------|
|---------------------|
|-7--4--5--7--7--5--7-|
|-5--4--5--7--5--5--7-|
|----2--3--5-----3--5-|#/11t2##/11t1#

Next Part (With sampling and different timed drum beat)

#12t1#Guitar One
#12t2#|--------------------------------------------------------------------
|--------------------------------------------------------------------
|--------------------------------------------------------------------
|-7-7-7-7-7-7-7-7--9-9-9-9-9-9-9-9--7-7-7-7-7-7-7-7--5-5-5-5-5-5-5-5-
|-7-7-7-7-7-7-7-7--9-9-9-9-9-9-9-9--5-5-5-5-5-5-5-5--5-5-5-5-5-5-5-5-
|-5-5-5-5-5-5-5-5--7-7-7-7-7-7-7-7-------------------3-3-3-3-3-3-3-3-#/12t2##/12t1#

#13t1##13t2#|--------------------------------------------------------------------
|--------------------------------------------------------------------
|--------------------------------------------------------------------
|-----------------------------------7-7-7-7-7-7-7-7------------------
|-7-7-7-7-7-7-7-7--9-9-9-9-9-9-9-9--5-5-5-5-5-5-5-5--5-5-5-5-5-5-5-5-
|-5-5-5-5-5-5-5-5--7-7-7-7-7-7-7-7-------------------3-3-3-3-3-3-3-3-#/13t2##/13t1#

#14t1##14t2#|----------------------------------------------------------------------------
|----------------------------------------------------------------------------
|----------------------------------------------------------------------------
|----------------------------------------------------------------------------
|-7-7-7-7-7-7-7-7--9-9-9-9-9-9-9--12-12-12-12-12-12-12--14-14-14-14-14-14-14-
|-5-5-5-5-5-5-5-5--7-7-7-7-7-7-7--10-10-10-10-10-10-10--12-12-12-12-12-12-12-#/14t2##/14t1#

#15t1##15t2#|----------------------------------------------------------------------------
|----------------------------------------------------------------------------
|----------------------------------------------------------------------------
|----------------------------------------------------------------4-4-4-4-4-4-
|-9-9-9-9-9-9-9-9--7-7-7-7--7-7-7--7-7-7--7--9----2-2-2-2-2-2-2--2-2-2-2-2-2-
|-7-7-7-7-7-7-7-7--5-5-5-5--5-5-5--5-5-5--5--7----0-0-0-0-0-0-0--------------#/15t2##/15t1#
                                         p.m

#16t1##16t2#|--------------------------------------------------------------|
|--------------------------------------------------------------|
|--------------------------------------------------------------|
|-4----------------------------------------------5-5-5-5-5-5-5-|
|-2--7-7-7-7--7-7-7--7-7-7--7--9--2-2-2-2-2-2-2--3-3-3-3-3-3-3-|
|----5-5-5-5--5-5-5--5-5-5--5--7--0-0-0-0-0-0-0----------------|#/16t2##/16t1#
                           p.m                   |*|


#17t1#Guitar Two
#17t2#|--------------------------------------------------------------------
|--------------------------------------------------------------------
|--------------------------------------------------------------------
|-7-7-7-7-7-7-7-7--9-9-9-9-9-9-9-9--7-7-7-7-7-7-7-7--5-5-5-5-5-5-5-5-
|-7-7-7-7-7-7-7-7--9-9-9-9-9-9-9-9--5-5-5-5-5-5-5-5--5-5-5-5-5-5-5-5-
|-5-5-5-5-5-5-5-5--7-7-7-7-7-7-7-7-------------------3-3-3-3-3-3-3-3-#/17t2##/17t1#

#18t1##18t2#|--------------------------------------------------------------------
|--------------------------------------------------------------------
|--------------------------------------------------------------------
|-----------------------------------7-7-7-7-7-7-7-7------------------
|-7-7-7-7-7-7-7-7--9-9-9-9-9-9-9-9--5-5-5-5-5-5-5-5--5-5-5-5-5-5-5-5-
|-5-5-5-5-5-5-5-5--7-7-7-7-7-7-7-7-------------------3-3-3-3-3-3-3-3-#/18t2##/18t1#

#19t1##19t2#|--------------------------------------------------------------------------
|------------------7-7-7-7-7-7-7-7--10-10-10-10-10-10-10-10----------------
|------------------4-4-4-4-4-4-4-4---7--7--7--7--7--7--7--7----12-12-12-12-
|---------------------------------------------------------------x--x--x--x-
|-7-7-7-7-7-7-7-7----------------------------------------------10-10-10-10-
|-5-5-5-5-5-5-5-5----------------------------------------------------------#/19t2##/19t1#

#20t1##20t2#|--------------------------------------------------------------------------
|--------------------------------------------------------------------------
|-12-12-12-12--11-11-11-11-11-11-11-11--7-7-7-7--7-7-7--6-6-6--6--4--12-12-
|--x--x--x--x---x--x--x--x--x--x--x--x--x-x-x-x--x-x-x--x-x-x--x--x---x--x-
|-10-10-10-10---9--9--9--9--9--9--9--9--5-5-5-5--5-5-5--4-4-4--4--2--10-10-
|--------------------------------------------------------------------------#/20t2##/20t1#

#21t1##21t2#|------------------------------------------------------------------------
|------------------------------------------------------------------------
|-12-12-12-12-12-12-11-11-11-11-11-11-11-11--7-7-7-7--7-7-7--6-6-6--6--4-
|--x--x--x--x--x--x--x--x--x--x--x--x--x--x--x-x-x-x--x-x-x--x-x-x--x--x-
|-10-10-10-10-10-10--9--9--9--9--9--9--9--9--5-5-5-5--5-5-5--4-4-4--4--2-
|------------------------------------------------------------------------#/21t2##/21t1#

#22t1##22t2#|----------------------------------------|
|----------------------------------------|
|-12-12-12-12-12-12-12-12--9-9-9-9-9-9-9-|
|--x--x--x--x--x--x--x--x--x-x-x-x-x-x-x-|
|-10-10-10-10-10-10-10-10--7-7-7-7-7-7-7-|
|----------------------------------------|#/22t2##/22t1#
Composição: Colaboração e revisão: