I Must Be Hateful

Lagwagon

Tom: G
I Must be hateful           B*
Blaze

#1t1#Main Riff (part 1)
#1t2#e|----------------|
b|----------------|
g|----------------|
d|----------------|
a|----6-----4---7-|
E|--7----7--------|#/1t2##/1t1#
 
#2t1#Main Riff (part 2)
#2t2#e|-------------------|
b|-------------------|
g|-------------------|
d|-------------------|
a|----1----4-2-1-2---|
E|--2---2------------|#/2t2##/2t1#
 

Main Riff (part 3)
 
#3t1##3t2#e|-----------|
b|-----------|
g|-------9---|
d|---6---9---|
a|---6---7---|
E|---4-------|#/3t2##/3t1#
 
This is the Chorus
 
#4t1##4t2#e|---------------------------------------|
b|---------------------------------------|
g|---------------------8-------9-------11|
d|---9-9/4-----9-9/4---8---6---7---9---11|
a|---9-9/4-----9-9/4---6---6---7---7---9-|
E|---7-7/2-----9-7/2-------4-------7-----|#/4t2##/4t1#
 
#5t1##5t2#e|--------------------------------|
b|--------------------------------|
g|------------8-------9-------11--|
d|---9-9/4----8---6---7---9---11--|
a|---9-9/4----6---6---7---7---9---|
E|---7-7/2--------4-------7-------|#/5t2##/5t1#
 
#6t1##6t2#e|----------------------------------------------------|
b|----------------------------------------------------|
g|---------------------------8--9--11--------------9--|
d|---2--4--9--4-----2--4--9--8--9--11--9--4--6--9--9--|
a|---2--4--9--4-----2--4--9--6--7--9---9--4--6--9--7--|
E|---0--2--7--2-----0--2--7------------7--2--4--7-----|#/6t2##/6t1#
Composição: Antonio Buglione / Joey CapeColaboração e revisão: