Inspector Gadget

Lagwagon

Tom: G
#1t1#

#1t2#----------0--2----1---0------------------
--0--2--3------3----2---3----------------
-----------------------------------------#/1t2##/1t1#



#2t1##2t2#-----------------------------------------
-----------------------------------------
-----------------2--1--------------------
----------0--2---------------------------
--0--2--3--------------------------------
-----------------------------------------#/2t2##/2t1#



#3t1##3t2#-----------------------------------------
-----------------------------------------
-----------------------------------------
----------0--2----1---0------------------
--0--2--3------3----2---3----------------
-----------------------------------------#/3t2##/3t1#



#4t1##4t2#-----------------------------------------
-----------------------------------------
--2--1--0-----------2------------------------
-----------4--3---2-------------------------
-----------------------------------------
-----------------------------------------#/4t2##/4t1#

#5t1##5t2#-----------------------------------------
-----------------------------------------
-----------------------------------------
----------0--2----1---0------------------
--0--2--3------3----2---3----------------
-----------------------------------------#/5t2##/5t1#

#6t1##6t2#-----------------------------------------
-----------------------------------------
-----------------2--1--------------------
----------0--2---------------------------
--0--2--3--------------------------------
-----------------------------------------#/6t2##/6t1#

#7t1##7t2#-----------------------------------------
-----------------------------------------
-----------------------------------------
----------0--2----1---0------------------
--0--2--3------3----2---3----------------
-----------------------------------------#/7t2##/7t1#

Then the bass goes

#8t1##8t2#---------------------
---------------------
---------------------
--5--4--3--2---1-----#/8t2##/8t1#

Then guitar goes

#9t1##9t2#----------------------
----------------------
-----2----------------
--2--2----------------
--2--0----------------
--0-------------------#/9t2##/9t1#
Composição: Antonio Buglione / Fat Mike / Gerald V. Casale / Ian McCulloch / Joey Cape / Lagwagon / Les Pattinson / Mark Mothersbaugh / Pete de Freitas / Will SergeantColaboração e revisão: