Jimmy Johnson

Lagwagon

Tom: G
#1t1#intro
#1t2#e|---------------------------------------------------------------------------|
B|---------------------------------------------------------------------------|
G|-4-------------------4-----------------------------------------------------|
D|-4------7-----5------4----5----7-------------------------------------------|
A|-2------7-----5------2----5----7-------------------------------------------|
E|--------5-----3-----------3----5-/-----------------------------------------|#/1t2##/1t1#

#2t1#riff 1
#2t2#e|-------------------------------------------------------------------------|
B|-------------------------------------------------------------------------|
G|-4--------7---------4---------7-----------------7------------------------|
D|-4---5----7----7----4----5----7---7----5----7---7---4----5---4-----------|
A|-2---5----5----7----2----5----5---7----5----7---5---4----5---4-----------|
E|-----3---------5---------3--------5----3----5-------2----3---2-----------|#/2t2##/2t1#

#3t1#riff 2
#3t2#e|-------------------------------------------------------------------------|
B|-------------------------------------------------------------------------|
G|-4-----------------------------------------------------------------------|
D|-4---5---5---5----7------------------------------------------------------|
A|-2---5---5---5----7------------------------------------------------------|
E|-----3---3---3----5p/----------------------------------------------------|#/3t2##/3t1#

#4t1#riff 3
#4t2#e|---------------------------------------------------------------------------|
B|---------------------------------------------------------------------------|
G|-4--------7--------4---------7---------------------------------------------|
D|-4---5----7---7----4----5----7---8-----------------------------------------|
A|-2---5----5---7----2----5----5---8-----------------------------------------|
E|-----3--------5---------3--------6-----------------------------------------|#/4t2##/4t1#

#5t1#solo 2x
#5t2#e|-------------------------------------------------------------------------|
B|-------------------------------------------------------------------------|
G|---4--9^--2--9^--1--9^--7--6---------------------------------------------|
D|-------------------------------------------------------------------------|
A|-------------------------------------------------------------------------|
E|-------------------------------------------------------------------------|#/5t2##/5t1#

#6t1#rhythm solo
#6t2#e|-------------------------------------------------------------------------|
B|-------------------------------------------------------------------------|
G|--4>-------------------4>--------------------------*---------------------|
D|--4>----7>---2>---5>---4>---7>---2>---5>--4>--4>---4---------------------|
A|--2>----7>---2>---5>---2>---7>---2>---5>--4>--4>---4---------------------|
E|--------5>---0>---3>--------5>---0>---3>--2>--2>---2---------------------|#/6t2##/6t1#

#7t1#riff 3
#7t2#e|-------------------------------------------------------------------------|
B|-------------------------------------------------------------------------|
G|-4-------7---------4---------7-------------------7-----------------------|
D|-4---5---7----7----4----5----7----7----5----7----7----4------------------|
A|-2---5---5----7----2----5----5----7----5----7----5----4------------------|
E|-----3--------5---------3---------5----3----5---------2/-----------------|#/7t2##/7t1#

#8t1#riff 4
#8t2#e|-------------------------------------------------------------------------|
B|-------------------------------------------------------------------------|
G|-*----*----7-------------------------------------------------------------|
D|-5----7----7-------------------------------------------------------------|
A|-5----7----5-------------------------------------------------------------|
E|-3----5------------------------------------------------------------------|#/8t2##/8t1#
Composição: Colaboração e revisão: