A
123
X02220
B
234
X24442
C
123
X32010
D
123
XX0232
E
123
022100
G
123
320003
Tom: G

i think the song is played like that.If you found some errors or you have some
questions,just e-mail me at *



 INTRO:

#1t1##1t2# ----------|
 ----------|
 ----------|
 ----------|
 0-5-7-9-x-|
 ----------|#/1t2##/1t1#

 MAIN PART:

#2t1# C               B               E               D
#2t2# ----------------------------------------------------------------|
 ----------------------------------------------------------------|
 5---------------4-------------------------------7---------------|
 5---------------4---------------2---------------7---------------|
 3---------------2---------------2---------------5---------------|
 --------------------------------0-------------------------------|#/2t2##/2t1#


#3t1# G               B            
#3t2# ---------------------------------|
 ---------------------------------|#/3t2##/3t1#
 12--------------16--16--16--x----|
 12--------------16--16--16--x----|
 10--------------14--14--14--x----|
#4t1##4t2# ---------------------------------|#/4t2##/4t1#


#5t1# E               D               C               B
#5t2# ----------------------------------------------------------------|
 ----------------------------------------------------------------|
 9---------------7---------------5---------------4---------------|
 9---------------7---------------5---------------4---------------|
 7---------------5---------------3---------------2---------------|
 ----------------------------------------------------------------|#/5t2##/5t1#


#6t1# G               D               C               B
#6t2# ----------------------------------------------------------------|
 ----------------------------------------------------------------|
 ----------------7---------------5---------------4---------------|
 5---------------7---------------5---------------4---------------|
 5---------------5---------------3---------------2---------------|
 3---------------------------------------------------------------|#/6t2##/6t1#

#7t1# (palm-muted part)
 E               C               D               C
#7t2# --------------------------------------------------------|
 --------------------------------------------------------|
 ----------------5---5---5---5---7---7---7---7---4---4---|
 2---2---2---2---5---5---5---5---7---7---7---7---4---4---|
 2---2---2---2---3---3---3---3---5---5---5---5---3---3---|
 0---0---0---0-------------------------------------------|#/7t2##/7t1#


#8t1# E               C               D               C
#8t2# --------------------------------------------------------|
 --------------------------------------------------------|
 ----------------5---5---5---5---7---7---7---7---4---4---|
 2---2---2---2---5---5---5---5---7---7---7---7---4---4---|
 2---2---2---2---3---3---3---3---5---5---5---5---3---3---|
 0---0---0---0-------------------------------------------|#/8t2##/8t1#


#9t1# E               C               D             C
#9t2# --------------------------------------------------------|
 --------------------------------------------------------|
 ----------------5---5---5---5---7---7---7---7-4-x---4---|
 2---2---2---2---5---5---5---5---7---7---7---7-4-x---4---|
 2---2---2---2---3---3---3---3---5---5---5---5-3-x---3---|
 0---0---0---0-------------------------------------------|#/9t2##/9t1#


#10t1# E               D               A               C       B
#10t2# ----------------------------------------------------------------|
 ----------------------------------------------------------------|
 ----------------7-------------------------------5-------4-------|
 2---------------7---------------7---------------5-------4-------|
 2---------------5---------------7---------------3-------2-------|
 0-------------------------------5-------------------------------|#/10t2##/10t1#


#11t1# E               D               A               G  B  D 
#11t2# ----------------------------------------------------------------|
 ----------------------------------------------------------------|
 9---------------7----------------------------------4--7---------|
 9---------------7---------------7---------------5--4--7---------|
 7---------------5---------------7---------------5--2--5---7-9---|
 --------------------------------5---------------3---------------|#/11t2##/11t1#



 MAIN PART ONCE MORE.


#12t1# play this times 
 E               D               A               C       B
#12t2# ----------------------------------------------------------------|
 ----------------------------------------------------------------|
 9---9---9-9-9-7-----7---7---7-------------------5-------4-------|
 9---9---9-9-9-7-----7---7---7---7---7---7---7---5-------4-------|
 7---7---7-7-7-5-----5---5---5---7---7---7---7---3-------2-------|
 --------------------------------5---5---5---5-------------------|#/12t2##/12t1#

#13t1# play this 4 times 
 E               D               A              
#13t2# ------------------------------------------------|
 ------------------------------------------------|
 9---9---9-9-9-7-x-4-2-0-------2---------0-------|
 9---9---9-9-9-7-x-------4-2-0-2---2-0-----2-----|
 7---7---7-7-7-5-x-------------0-------3-----3-x-|
 ------------------------------------------------|#/13t2##/13t1#


 THEN THE MAIN PART AGAIN, CUT AFTER FIRST LINE OF MUTING
Composição: Colaboração e revisão: