Leave The Light On

Lagwagon

Tom: G
10/12/98

S1: Some of the lines in this tab are buggered up because of the feild
Album: Let's Talk About Feelings
Tabbed By: Mark Norris (*)

INTRO/VERSE

#1t1#Guitar One
#1t2#|---------------------------------------------------------------------------
|---------------------------------------------------------------------------
|---------------------------------------------------------------------------
|-----------------------------------------------4-4--4-4-4--4---------------
|-5-5--5-5-5--5--4-4--4--5-5-5---4-4--4-4-4--4--2-2--2-2-2--2----5---4-4--4-
|-3-3--3-3-3--3--5-5--5--6-6-6---2-2--2-2-2--2-------------------3---5-6--2-#/1t2##/1t1#

#2t1##2t2#|----------------------------------------------------------------------------
|----------------------------------------------------------------------------
|-4--6-----------------------------------------------------------------------
|-x--x----------------------------------7-7--7-7-7--7-----------------4-4--4-
|-2--4----5-5--5-5-5--5--4-4--4-4-4--4--5-5--5-5-5--5--4-4--4-4-4--4--2-2--2-
|---------3-3--3-3-3--3--5-5--5-5-5--5-----------------2-2--2-2-2--2---------#/2t2##/2t1#

#3t1##3t2#|----------------------------------------------|
|-------------------------/8~------------------|
|----------------------------------------------|
|-4-4--4--2-2--2-2-2--2------------------------|
|-2-2--2--0-0--0-0-0--0-------------4--4--4--4-|
|-----------------------------------5--5--5--5-|#/3t2##/3t1#

#4t1#Guitar 2
#4t2#|----------------------------------------------------------------------------
|----------------------------------------------------------------------------
|----------------------------------------------------------------------------
|-----------------------------------------------4-4--4-4-4--4----------------
|-5-5--5-5-5--5--4-4--4--5-5-5---4-4--4-4-4--4--2-2--2-2-2--2----5---4-4--4--
|-3-3--3-3-3--3--5-5--5--6-6-6---2-2--2-2-2--2-------------------3---5-6--2--#/4t2##/4t1#


#5t1##5t2#|----------------------------------------------------------------------------
|----------------------------------------------------------------------------
|-4--6-----------------------------------------------------------------------
|-x--x----------------------------------7-7--7-7-7--7-----------------4-4--4-
|-2--4----5-5--5-5-5--5--4-4--4-4-4--4--5-5--5-5-5--5--4-4--4-4-4--4--2-2--2-
|---------3-3--3-3-3--3--5-5--5-5-5--5-----------------2-2--2-2-2--2---------#/5t2##/5t1#

#6t1##6t2#|-----------------------------------9----9---9---9-|
|-------------------------/8~------10---10--10--10-|
|-------------------------------7---9----9---9---9-|
|-4-4--4--2-2--2-2-2--2----------------------------|
|-2-2--2--0-0--0-0-0--0----------------------------|
|--------------------------------------------------|#/6t2##/6t1#



Solo

Guitar 1 (Harmonics are in brackets, unnatutural harmonics i think they
are,
          the type where you hit the string with your thumb after picking it)
#7t1##7t2#|----------------------------------------------------------------------------
|----------------------------------------------------------------------------
|---------------------------------------------0-2-4-3--6--7---6p5p0-(0)------
|--------------4-5--4h5p4h5p4h5p4h5p4h5--4-2-------------------------------------
|-9/------5-7----------------------------------------------------------------
|----------------------------------------------------------------------------#/7t2##/7t1#

#8t1##8t2#|-(6)-----------------------------------|
|---------------------------------------|
|-------4~---4-5-7--DON'T KNOW THE REST-|
|---------------------------------------|
|---------------------------------------|
|---------------------------------------|#/8t2##/8t1#


#9t1#Guitar 2 (Rhythm behind solo)
#9t2#|------------------------------------------------|
|------------------------------------------------|
|------------------------------------------------|
|---------------------4----------------4--4--4-2-|
|-5~----5---4--5--4---2---5---4--5--4--2--2--2-0-|
|-------3---5--6--2-------3---5--6--2------------|#/9t2##/9t1#



POST SOLO INTERLUDE (With sampling and Guitar 1 holding the harmonic)

#10t1#Guitar 2
#10t2#|--------------------------------------------------------------------
|--------------------------------------------------------------------
|--------------------------------------------------------------------
|----------------------------------------------------4-4-4-4-4-4-4-4-
|5-5-5-5-5-5-5-5--7-7-7-7--9-9-9-9--4-4-4-4-4-4-4-4--2-2-2-2-2-2-2-2-
|3-3-3-3-3-3-3-3--5-5-5-5--7-7-7-7--2-2-2-2-2-2-2-2------------------
 |*|#/10t2##/10t1#


#11t1##11t2#|--------------------------------------------------------------------
|--------------------------------------------------------------------
|--------------------------------------------------------------------
|----------------------------------------------------4-4-4-4-4-4-4-4-
|5-5-5-5-5-5-5-5--7-7-7-7--9-9-9-9--4-4-4-4-4-4-4-4--2-2-2-2-2-2-2-2-
|3-3-3-3-3-3-3-3--5-5-5-5--7-7-7-7--2-2-2-2-2-2-2-2------------------
 |*|#/11t2##/11t1#

#12t1##12t2#|------------------------------------------------------------------------
|------------------------------------------------------------------------
|------------------------------------------------------------------------
|----------5-5-5-5--4-4-4-4--2-2-2-2-----------4-4-4-4--2-2-2-2--0-0-0-0-
|-5-5-5-5------------------------------4-4-4-4---------------------------
|-3-3-3-3------------------------------2-2-2-2---------------------------#/12t2##/12t1#

#13t1##13t2#|*|#/13t2##/13t1#

#14t1##14t2#|------------------------------------------------------------------------|
|------------------------------------------------------------------------|
|------------------------------------------------------------------------|
|----------5-5-5-5--4-4-4-4--2-2-2-2-----------4-4-4-4--2-2-2-2--0-0-0-0-|
|-5-5-5-5------------------------------4-4-4-4---------------------------|
|-3-3-3-3------------------------------2-2-2-2---------------------------|
 |*|#/14t2##/14t1#

                                               ^------------------------^
Guitar 1 (At the end of th Post Solo Interlude i.e as above)
#15t1##15t2#|---------------------------|
|---------------------------|
|-6-6-6-6--7-7-7-7--4-4-4-4-|
|-x-x-x-x--x-x-x-x--x-x-x-x-|
|-4-4-4-4--5-5-5-5--2-2-2-2-|
|---------------------------|#/15t2##/15t1#


OUTRO 

#16t1#Guitar 1
#16t2#|---------------------------------------------------------
|---------------------------------------------------------
|--------7-7-7--6-6-6--9-9-9----------6-6-6--7-7-7--4-4-4-
|--------x-x-x--x-x-x--x-x-x----------x-x-x--x-x-x--x-x-x-
|-5-5-5--5-5-5--4-4-4--7-7-7---4-4-4--4-4-4--5-5-5--2-2-2-
|-3-3-3------------------------2-2-2----------------------#/16t2##/16t1#

#17t1##17t2#|---------------------------------------------------------
|---------------------------------------------------------
|--------7-7-7--6-6-6--9-9-9----------6-6-6--7-7-7--4-4-4-
|--------x-x-x--x-x-x--x-x-x----------x-x-x--x-x-x--x-x-x-
|-5-5-5--5-5-5--4-4-4--7-7-7---4-4-4--4-4-4--5-5-5--2-2-2-
|-3-3-3------------------------2-2-2----------------------#/17t2##/17t1#

#18t1##18t2#|---------------------------------------------------------------------------
|---------------------------------------------------------------------------
|--------12-12-12--11-11-11--9-9-9------------------------------------------
|---------x--x--x---x--x--x--x-x-x---7-7--7-7-7--7-----------------4-4--4-4---
|-5-5-5--10-10-10---9--9--9--7-7-7---5-5--5-5-5--5--4-4--4-4-4--4--2-2--2-2--------------
|-3-3-3---------------------------------------------2-2--2-2-2--2-----------#/18t2##/18t1#

#19t1##19t2#|----------------------------|
|----------------------------|
|----------------------------|
|-4--4--2-2--2-2-2--2--7~--7-|
|-2--2--0-0--0-0-0--0--5~--5-|
|----------------------------|#/19t2##/19t1#


#20t1#Guitar 2
#20t2#|-----------------------------------------------------------------
|-----------------------------------------------------------------
|--------12-12-12--11-11-11--9-9-9---------11-11-11--9-9-9--7-7-7-
|---------x--x--x---x--x--x--x-x-x----------x--x--x--x-x-x--x-x-x-
|-5-5-5--10-10-10---9--9--9--7-7-7---4-4-4--9--9--9--7-7-7--5-5-5-
|-3-3-3------------------------------2-2-2------------------------#/20t2##/20t1#

#21t1##21t2#|-----------------------------------------------------------------
|-----------------------------------------------------------------
|--------12-12-12--11-11-11--9-9-9---------11-11-11--9-9-9--7-7-7-
|---------x--x--x---x--x--x--x-x-x----------x--x--x--x-x-x--x-x-x-
|-5-5-5--10-10-10---9--9--9--7-7-7---4-4-4--9--9--9--7-7-7--5-5-5-
|-3-3-3------------------------------2-2-2------------------------#/21t2##/21t1#

#22t1##22t2#|------------------------------------------------------------------
|------------------------------------------------------------------
|--------12-12-12--11-11-11--9-9-9---7-7-7--11-11-11--9-9-9--7-7-7-
|---------x--x--x---x--x--x--x-x-x---x-x-x---x--x--x--x-x-x--x-x-x-
|-5-5-5--10-10-10---9--9--9--7-7-7---5-5-5---9--9--9--7-7-7--5-5-5-
|-3-3-3------------------------------------------------------------#/22t2##/22t1#

#23t1##23t2#|--------------------------------------------|
|--------------------------------------------|
|-11-11--11-11-11--11---6-6--6-6-6--6--7---7-|
|--x--x---x--x--x---x---x-x--x-x-x--x--x---x-|
|--9--9---9--9--9---9---4-4--4-4-4--4--5~--5-|
|--------------------------------------------|#/23t2##/23t1#


Composição: Colaboração e revisão: