May 16

Lagwagon

Tom: G


INTRO:

#1t1#1st riff
#1t2#|------------------------------------------| 
|------------------------------------------| 
|-9-7-6-7----9-7-6-7----9-7-6-7----7-6-4-2-| 
|-0-0-0-0----0-0-0-0----0-0-0-0----0-0-0-0-| 
|------------------------------------------| 
|------------------------------------------| #/1t2##/1t1#

#2t1#2nd riff 
#2t2#|------------------------------------------------------| 
|------------------------------------------------------| 
|-9-7-6-7-7-7-6-6-6-7-7-7-7--9-7-6-7-7-7-6-6-6-7-7-7-7-| 
|-0-0-0-0-0-0-0-0-0-0-0-0-0--0-0-0-0-0-0-0-0-0-0-0-0-0-| 
|------------------------------------------------------| 
|------------------------------------------------------| #/2t2##/2t1#

#3t1##3t2#|----------------------------------------------------| 
|----------------------------------------------------| 
|-9-7-6-7-7-7-6-6-6-7-7-7-7--7-6-4-2-2-2-7-7-7-6-6-6-| 
|-0-0-0-0-0-0-0-0-0-0-0-0-0--0-0-0-0-0-0-0-0-0-0-0-0-| 
|----------------------------------------------------| 
|----------------------------------------------------| #/3t2##/3t1#

#4t1#3rd riff 
#4t2#|----------------------------------------------------| 
|----------------------------------------------------| 
|---------7--------9-----11--------11-----12-11-9----| 
|--[7][7]---[7][7]---[7]----[7][7]----[7]---------12-| 
|----------------------------------------------------| 
|----------------------------------------------------| #/4t2##/4t1#


#5t1#VERSE:
#5t2#|-------------------------------------------------| 
|-------------------------------------------------| 
|-7--4--7-----4-7-6--------7-7-------4--7-6-------| 
|-7--4--7--4---------5--7--7----7-7--4-------5--7-| 
|-5--2--5--4--2-5-4--5--7--5-5--7----2--5-4--5--7-| (strum each power chord a lot and the octaves
|----------2---------3--5-------5-5----------3--5-|  once, listen for rhythym)#/5t2##/5t1#


#6t1#CHORUS:
#6t2#|----------------------------------------------| 
|----------------------------------------------| 
|-7-6--9-9-9-11-9--------9-9-9-11-9---7-9-11-9-| 
|-7-6---------------9-7------------------------| 
|-5-4--7-7-7-9-7----9-7--7-7-7--9-7---5-7--9-7-| 
|-------------------7-5------------------------| #/6t2##/6t1#

#7t1#INTERLUDE:
#7t2#|-----------------------------------------|------------|---------| 
|-----------------------------------------|------------|---------| 
|---------7--------9-----11--------11-----|-12-11-9----|-9-7-6---| 
|--[7][7]---[7][7]---[7]----[7][7]----[7]-|---------12-|-------9-|
|-----------------------------------------|------------|---------| 
|-----------------------------------------|------------|---------| #/7t2##/7t1#

VERSE
CHORUS

#8t1#BRIDGE:                                           2nd guitar plays this
#8t2#|-----------------------------------------------| |--------------------| 
|-----------------------------------------------| |--------------------| 
|-7-7-7-7-7-------------------------------------| |-777777777777777777-| 
|-7-7-7-7-7---7-7-7-7-7---5-5-5-5-5---7-7-7-7-7-| |--------------------| 
|-5-5-5-5-5---7-7-7-7-7---5-5-5-5-5---7-7-7-7-7-| |--------------------|
|-------------5-5-5-5-5---3-3-3-3-3---5-5-5-5-5-| |--------------------| #/8t2##/8t1#
                                                  

#9t1#SOLO:
#9t2#|---------------------------------------------------------------------------| 
|--------------5--------------------7------------------------5-------7------| 
|-----4-6-7~-----7-6-7~---6~--4-------7-4--2-4-6-3-4-6-7-6-4---7-6-7---7/9~-| 
|-7~----------------------------7~------------------------------------------| 
|---------------------------------------------------------------------------| 
|---------------------------------------------------------------------------| #/9t2##/9t1#


#10t1#OUTRO:
#10t2#|-------------------------------------------------------------------------| 
|-------------------------------------------------------------------------| 
|---------7--------9-----11--------11-----12-11-9------------7--------9-7-| 
|--[7][7]---[7][7]---[7]----[7][7]----[7]---------12--[7][7]---[7][7]-----| 
|-------------------------------------------------------------------------| 
|-------------------------------------------------------------------------|#/10t2##/10t1#
Composição: Joey Cape / LagwagonColaboração e revisão: