busca

May 16th

Lagwagon

Tom: D
Intro:
guitarra 1: D B G A
guitarra 2:
|-------------------------------------|
|-------------------------------------|
|-------------------------------------|
|-9-7-6-7--9-7-6-7--9-7-6-7--7-6-4-2--|
|-7-5-4-5--7-5-4-5--7-5-4-5--5-4-2-0--|
|-------------------------------------|

guitarra 1: D B G A
guitarra 2:
|-------------------------------------|
|-------------------------------------|
|-------------------------------------|
|-9-7-6-7-6-7--7-6-4-2----------------|
|-7-5-4-5-4-5--5-4-2-0----------------|
|-----3x----------1x------------------|

guitarra 1: pause
guitarra 2:
|-------------------------------------|
|-----------------7-----7-8-7---------|
|-----7-----9-----------------9-7-----|
|-7-7---7-7---7-7---7-7---------------|
|-------------------------------------|
|-------------------------------------|

  D5               B5
No more waiting on them,
D5                      F#5
As you rise inside new rooms,
D5    C#5       G5
It's official you've gone,
  A5
You can live for no one,
  D5             A5             B5
Else man, the guilt must be huge
  D5      C#5  G5
There's no gain in failure,
  A5                    D5
You succeed at being mine,
                  B5
Yeah, old friend, see you there
  D5                    F#5
I will be proud from afar,
  D5 C#5  G5
I can paint a picture
   A5
In a moment of
  D5            A5              B5
Memories and there aren't many left,
  D5 C#5  G5
I am extradited,
  A5 
Uninvited

D5 - C#5 - B5 - B5 - G5 - A5

it's just another Saturday…

Ponte:
|--------------------------------|-------------------------------|
|------------------7---7-8-7-----|-----------------7---7---------|
|-----7------9---------------9-7-|-----7-----9-----------9-7-6---|
|-7-7---7-7----7-7---7-----------|-7-7---7-7---7-7---7---------7-|
|--------------------------------|-------------------------------|
|--------------------------------|-------------------------------|

 D5              B5
Take a step to freedom,
 D5                               F#5
You and her loathing this cruel world,
 D5   C#5  G5                 A5
Take a breath of shelter and exhale,
 D5       A5   B5
Trust and allegiance
 D5  C#5   G5         A5 
Liberate yourself from hell

D5 - C#5 - B5 - B5 - G5 - A5
it's just another Saturday…

Solo:
e-------------------------------------------------|
B|-------------------------------------------------|
G|-7-7-7-7-7...-----------6-7~--9-7-6h7~--6~-------|
D|-----------------7~-7-9---------------------9-7~-|
A|-------------------------------------------------|
E|-------------------------------------------------|

e-------------------------------------------------|
B|--7----------------------------------------------|
G|---7------7-----6-7-6---9-7-6-7-11-9-------------|
D|----9-7-9---8-9-------9--------------------------|
A|-------------------------------------------------|
E|-------------------------------------------------|

Solo Final

|--------------------------------|-------------------|
|------------------7---7-8-7-----|-------------------|
|-----7------9---------------9-7-|-----7-----9-----7-|
|-7-7---7-7----7-7---7-----------|-7-7---7-7---7-7---|
|--------------------------------|-------------------|
|--------------------------------|-------------------|

Clipes

Cifra Club Pro

Aproveite o Cifra Club com benefícios exclusivos e sem anúncios
7 dias grátis
Cifra Club Pro
Aproveite o Cifra Club com benefícios exclusivos e sem anúncios
7 dias grátis