Mr Coffee

Lagwagon

G
123
320003
Tom: G

Transcribed By: Paul Borejsza : * 

#1t1#     INTRO:
#1t2#e|--------------------------------------------------------------------|
B|-----4------4-------4-----4--------4-------4-------3----1-3---------|
G|--------------------------------------------------------------------|
D|--------------------------------------------------------------------|
A|-2-------2-----2----------------------------------------------------|
E|-----------------4-----4----4--3-------3------3-2-------------------|#/1t2##/1t1#

#2t1##2t2#e|--------------------------------------------------------------------|
B|-----4------4-------4-----4--------4-------4------------------------|
G|--------------------------------------------------------------------|
D|--------------------------------------------------------------------|
A|-2------2-2----2---------------------------------5--5-5-------------|
E|-----------------4-----4-4---4--3-------3------3-2--2-2-------------|#/2t2##/2t1#

     GUITAR 1&2
     VERSE 1: Morning has broken...
#3t1##3t2#e|--------------------------------------------------------------------|
B|--------------------------------------------------------------------|
G|--------------------------------------------------------------------|
D|-------------------------9\8\4--------------------------------------|
A|-9-9--9--9-9-----6-6--6--7\6\2---4-4--4--/--8\6/8-9-9--9-9----------|
E|-7-7--7--7-7-----4-4--4----------2-2--2--/--6\4/6-7-7--7-7----------|#/3t2##/3t1#

#4t1##4t2#e|--------------------------------------------------------------------|
B|--------------------------------------------------------------------|
G|--------------------------------------------------------------------|
D|-------------------------9\8\4--------------------------------------|
A|-9-9--9--9-9-----6-6--6--7\6\2---4-4--4--/--8\6/8-9-9--9-9----------|
E|-7-7--7--7-7-----4-4--4----------2-2--2--/--6\4/6-7-7--7-7----------|#/4t2##/4t1#

#5t1# Chorus: Here I come to save the day...
#5t2#e|--------------------------------------------------------------------|
B|--------------------------------------------------------------------|#/5t2##/5t1#
#6t1#G| -------------------9-----------------------------------------------|
#6t2#D|-4--4-/-6-6---8-8---9--9---8/-9-9--9-9---11-x--4-4---4---x-x--------|
A|-2--2-/-4-4-/-6-6-/-7--7---6/-7-7--7-7---9--x--2-2---2---x-x--------|
E|--------------------------------------------------------------------|#/6t2##/6t1#

#7t1##7t2#e|--------------------------------------------------------------------|
B|--------------------------------------------------------------------|#/7t2##/7t1#
#8t1#G| -------------------9-----------------------------------------------|
#8t2#D|-4--4-/-6-6---8-8---9--9---8/-9-9--9-9---11-x--4-4---4--------------|
A|-2--2-/-4-4-/-6-6-/-7--7---6/-7-7--7-7---9--x--2-2---2--------------|
E|--------------------------------------------------------------------|#/8t2##/8t1#

    VERSE 2: AH, Ha I'm wired..
     

     REPEAT CHORUS

#9t1##9t2#e|--------------------------------------------------------------------|
B|--------------------------------------------------------------------|
G|--------------------------------------------------------------------|
D|---9-9--x--6-6--x--8-8-x--4-----------------------------------------|
A|---7-7--x--4-4--x--6-6-x--2-----2-4-6-------------------------------|
E|-----------------------------(palm mute)----------------------------|#/9t2##/9t1#

#10t1##10t2#e|--------------------------------------------------------------------|
B|--------------------------------------------------------------------|
G|--------------------------------------------------------------------|
D|---9-9--x--6-6--x--8-8-x--4-----------------------------------------|
A|---7-7--x--4-4--x--6-6-x--2-----------------------------------------|
E|--------------------------------------------------------------------|#/10t2##/10t1#

#11t1##11t2#e|--------------------------------------------------------------------|
B|--------------------------------------------------------------------|
G|--------------------------------------------------------------------|
D|---9-9--x--6-6--x--8-8-x--4-----------------------------------------|
A|---7-7--x--4-4--x--6-6-x--2-----2-4-6-------------------------------|
E|-----------------------------(palm mute)----------------------------|#/11t2##/11t1#

#12t1##12t2#e|--------------------------------------------------------------------|
B|--------------------------------------------------------------------|
G|--------------------------------------------------------------------|
D|---9-9--x--6-6--x--8---6---4----------------------------------------|
A|---7-7--x--4-4--x--6---4---2----------------------------------------|
E|--------------------------------------------------------------------|#/12t2##/12t1#

     Guitar 1: Play Palm Muted, then go to a muted low E chord 
     which becomes less muted at the end
#13t1##13t2#e|--------------------------------------------------------------------|
B|--------------------------------------------------------------------|
G|--------------------------------------------------------------------|
D|--4---4-4------4--4-4-----------------------------------------------|
A|--2---2-2--4---2--2-2--4-----2-2-2-2-2-2-2-2------------------------|
E|-----------2-----------2-----0-0-0-0-0-0-0-0------------------------|#/13t2##/13t1#

#14t1#     Guitar 2: Play notes sharp and quick
#14t2#e|--------------------------------------------------------------------|
B|---------9--------------9------------9--------------9---------------|
G|-------8----11--------8----11------8----11--------8---11---9~-~-~---|
D|---9--------------/9------------9------------/9-9-------------------|
A|--------------------------------------------------------------------|
E|--------------------------------------------------------------------|#/14t2##/14t1#

#15t1##15t2#e|--------------------------------------------------------------------|
B|--------------------------------------------------------------------|
G|--(9)~-~-~---9\-----------------------------------------------------|
D|--------------------------------------------------------------------|
A|-----------------------------------2-2-2-2-2-2-2-2------------------|
E|-----------------------------------0-0-0-0-0-0-0-0------------------|#/15t2##/15t1#

     
#16t1##16t2#e|--------------------------------------------------------------------|
B|--------------------------------------------------------------------|
G|--------------------------------------------------------------------|
D|--------------------------------------------------------------------|
A|--2-4-6--4-6-8--9-9--9-9--9-9---------------------------------------|
E|--0-2-4--2-4-6--7-7--7-7--7-7---------------------------------------|#/16t2##/16t1#

     GUITAR 1 Turning your pick on its side helps to be able to 
     pick this fast
#17t1##17t2#e|--------------------------------------------------------------------|
B|--------------------------------------------------------------------|
G|--------------------------------------------------------------------|
D|--------------------------------------------------------------------|
A|--2-2-2-2-2-2-2--2-2--2--/9--8--9----11---9-8---2-2-2-2-2-2-2--2----|
E|--------------------------------------------------------------------|#/17t2##/17t1#

#18t1#     GUITAR 1&2
#18t2#e|--------------------------------------------------------------------|
B|--------------------------------------------------------------------|
G|--9-----------------------------------------------------------------|
D|--9-------9--8--9-----11---9-\--------4-----4-----4----4------------|
A|--7-------7--6--7-----9----7-\--p.*|
E|--------------------------------------------------------------------|#/18t2##/18t1#

#19t1##19t2#e|--------------------------------------------------------------------|
B|--------------------------------------------------------------------|
G|--9-----------------------------------------------------------------|
D|--9-------9--8--9-----11---9----------4---4-4------4--4-4-----------|
A|--7-------7--6--7-----9----7----------2---2-2--4---2--2-2--4--------|
E|--------------------------------------------------2-----------2--------|#/19t2##/19t1#

#20t1#               OUTRO, GUITAR 2:
#20t2#e|--------------------------------------------------------------------|
B|--------------------------------------------------------------------|
G|-----------------------11--11---11-----8----------------------------|
D|--2---------------------------------11----9-------------------------|
A|--2-----------------------------------------------------------------|
E|--0-----------------------------------------------------------------|#/20t2##/20t1#
Composição: Antonio Buglione / Fat Mike / Gerald V. Casale / Ian McCulloch / Joey Cape / Lagwagon / Les Pattinson / Mark Mothersbaugh / Pete de Freitas / Will SergeantColaboração e revisão: