busca

No Little Pill

Lagwagon

G|-------14--------9---------12----9-10-9----|
D|-12-12----12\7-7-----10-10----10--------10-| 
A|-------------------------------------------| x3
E|-------------------------------------------|

G|----------------------------------|
D|----------------/77777777777775---| 
A|-0~----------------------------7\-|
E|----------------------------------|

G|------------------------------------------------------------------|
D|------------------------------------------------------------------| 
A|-0-00000000000-2-3-333333333333331-111111--------0-00000000000000-|
E|-----------------------------------------1-111111-----------------|

G|------------------------------------------------------------------|
D|---------------------------------------------------------777575---| 
A|-0-00000000000-2-3-333333333333331-111111--------0-000000------75-|
E|-----------------------------------------1-111111-----------------|

G|------------------------------------------------------------------|
D|-------------------------5~---------------------------------------| 
A|-5~------7~------8~--------------0-00000000000---0-000000-33--555-|
E|----------------------------------------------333-----------------|

G|------------------------------------------------------------------|
D|------------------------------------------------------------57757-| 
A|-0-0000000000022-3-333333333333331-111111--------0-000000000------|
E|-----------------------------------------1-111111-----------------|

G|------------------------------------------------------------------|
D|------------------------------------------------------------------| 
A|-0-0000000000022-3-333333333333331-111111--------0-00000033235535-|
E|-----------------------------------------1-111111-----------------|

G|--------------------------------------------------|
D|-------------------------5---6--------------------| 
A|-5~------7~------8~--------------0-00000000000----|
E|----------------------------------------------333-|

G|----------------------------------|
D|-------------------------5\-------| 
A|-5~------7~------8~---------------|
E|----------------------------------|

G|----------------------------------|
D|----------------------------------| 
A|-------------------------55332233-|
E|-1-11-11-555555551-11-11----------|

G|------------------------------------------------------------------|
D|-------------------------2-222222--------3~---------------5567----|
A|--------------------3-3----------5---------------0~-----------75--|
E|-1-11-11-555555551-1---3-------------5--------------------------8-|

G|------------------------------------------------------------------|
D|-----------------------------------------33333353-----------------| 
A|-0-0000000000022-3-333333333333331-111111--------0-000000333--555-|
E|------------------------------------------------------------------|

G|------------------------------------------------------------------|
D|------------------------------------------------------------4454--| 
A|-0-0000000000022-3-333333333333331-111111--------0-000000577----5-|
E|-----------------------------------------1-111111-----------------|

G|--------------------------------------------------|
D|-------------------------5---6--------------------| 
A|-5~------7~------8~--------------5-53-------------|
E|---------------------------------------3-5~-------|

G|----------------------------------|
D|-------------------------5\-------| 
A|-5~------7~------8~---------------|
E|----------------------------------|

G|----------------------------------|
D|----------------------------------| 
A|-------------------------55332233-|
E|-1-11-11-555555551-11-11----------|

G|------------------------------------------------------------------|
D|-------------------------2---------------3~--33----------3~--33---|
A|--------------------3-3----532-3-5---------33--335---------33--33-|
E|-1-11-11-555555551-1---3-------------5---------------5------------|

G|------------------|
D|---------3~-------|
A|-5----------------|
E|-----5------------|

Clipes

Cifra Club Pro

Aproveite o Cifra Club com benefícios exclusivos e sem anúncios
Cifra Club Pro
Aproveite o Cifra Club com benefícios exclusivos e sem anúncios